Artists by letter: A B C D E F G H I J K L M N O P Q R S T U V W X Y Z 0-9

 
Dirty Magic Tab
Artist   - The Offspring
Song     - Dirty Magic
Album    - Ignition
Tabber   - Xero-P
Tunning  - Standard (E,A,D,G,B,E)

Hola, que tal, Ústa es mi versi0n de Dirty Magic, los sonidos salen a la perfecci0n. Por 
votad. Viva Espana

Hi, whats up? This is my version of Dirty Magic by The Offspring, the sounds like 100% 
Please rate it!

> slide up
< slide down
v vibrato

Guitar 1 - clean  This in whole song

E--------------------------------------------------------------------------|
B--------------------------------------------------------------------------|
G--------------------------------------------------------------------------|
D--------------------------------------------------------------------------|
A--------------7------7-----------10-----------9------I----2---3--2v-I-----|
E--3-3->>>--55---5--5---5->>>--88----8-->>--88----8--0000--0000000--00------------------------|
B----555555555555--5555555--00------------------------|
G--------------------------------------------------------------------------|
D--------------------------------------------------------------------------|
A--------------------------------------------------------------------------|
E--------------------------------------------------------------------------|


E----0000>>>>0000--0000000--00------------------------------------|
B----3333>>>>5555--5555555--00------------------------------------|
G--------------------------------------------------------------------------|
D--------------------------------------------------------------------------|
A--------------------------------------------------------------------------|
E--------------------------------------------------------------------------|

In my own simple way
I think she wants me only
She said, "Come over right away."


Guitar 2 play this in 00:39 seconds

E----0000>>>>0000---00-----------------------------------------------------|
B----3333>>>>5555---00-----------------------------------------------------|
G--------------------------------------------------------------------------|
D--------------------------------------------------------------------------|
A--------------------------------------------------------------------------|
E--------------------------------------------------------------------------|

But she's just not that way
Her little soul is stolen
See her put on her brand new face


Guitar 2 play this in 00:53 seconds

E----0000>>>>0000000000----------------------------------------------------|
B----3333>>>>5555555555----------------------------------------------------|
G--------------------------------------------------------------------------|
D--------------------------------------------------------------------------|
A--------------------------------------------------------------------------|
E--------------------------------------------------------------------------|

Pull the shades
Razor blades
You're so tragic
I hate you so but love you more
I'm so elastic
The things you say
Games you play
Dirty Magic

Guitar 1 & 2 distortion

Chorus:
e||-----------------------------------------------------------|
B||-----------------------------------------------------------|
G||--7\9--9-9--9----7\9--9-9--9---------------7--7-7--9-7-7---|
D||--7\9--9-9--9----7\9--9-9--9---5-5--5-7-5--7--7-7--7-7-7---|x3
A||--5\7--7-7--7----5\7--7-7--7---5-5--5-5-5--5--5-5--5-5-5---|
E||-------------------------------3-3--3-3-3------------------|

ahhhhh ahhhhh

e||----------------------------------------0--|
B||----------------------------------------0--|
G||----------------------------------------0--|
D||--7-7--7-7-7--7\10-10-10-10--9-9-9-9----2--|
A||--7-7--7-7-7--7\10-10-10-10--9-9-9-9----2--|
E||--5-5--5-5-5--5\8--8--8--8---7-7-7-7----0--|


Guitar 1 - clean  This in whole song

E--------------------------------------------------------------------------|
B--------------------------------------------------------------------------|
G--------------------------------------------------------------------------|
D--------------------------------------------------------------------------|
A--------------7------7-----------10-----------9------I----2---3--2v-I-----|
E--3-3->>>--55---5--5---5->>>--88----8-->>--88----8--0000--0000000--00------------------------------------|
B----3333>>>>5555--5555555--00------------------------------------|
G--------------------------------------------------------------------------|
D--------------------------------------------------------------------------|
A--------------------------------------------------------------------------|
E--------------------------------------------------------------------------|

I should know better than to
TThink I'd reach inside her
It's all a cloudy kind of daze

Guitar 2 play this in 01:47 seconds

E----0000>>>>0000--0000>>>>0000-00-----------------------------------------|
B----3333>>>>5555--3333>>>>5555-00-----------------------------------------|
G--------------------------------------------------------------------------|
D--------------------------------------------------------------------------|
A--------------------------------------------------------------------------|
E--------------------------------------------------------------------------|

She's not so sweet today
She mocks me, I'm no fighther
It all just seems like such a waste
It's oversimplified


Guitar 2 play this in 02:00 seconds

E----0000>>>>0000000000----------------------------------------------------|
B----3333>>>>5555555555----------------------------------------------------|
G--------------------------------------------------------------------------|
D--------------------------------------------------------------------------|
A--------------------------------------------------------------------------|
E--------------------------------------------------------------------------|

Pull the shades
Razor blades
You're so tragic
I hate you so but love you more
I'm so elastic
The things you say
Games you play
Dirty Magic

Guitar 1 & 2 DISTORTION 02:03

Chorus:
e||-----------------------------------------------------------|
B||-----------------------------------------------------------|
G||--7\9--9-9--9----7\9--9-9--9---------------7--7-7--9-7-7---|
D||--7\9--9-9--9----7\9--9-9--9---5-5--5-7-5--7--7-7--7-7-7---|x3
A||--5\7--7-7--7----5\7--7-7--7---5-5--5-5-5--5--5-5--5-5-5---|
E||-------------------------------3-3--3-3-3------------------|

ahhhhh ahhhhh

e||----------------------------------------0--|
B||----------------------------------------0--|
G||----------------------------------------0--|
D||--7-7--7-7-7--7\10-10-10-10--9-9-9-9----2--|
A||--7-7--7-7-7--7\10-10-10-10--9-9-9-9----2--|
E||--5-5--5-5-5--5\8--8--8--8---7-7-7-7----0--|

Guitar 1 - clean  This in whole song

E--------------------------------------------------------------------------|
B--------------------------------------------------------------------------|
G--------------------------------------------------------------------------|
D--------------------------------------------------------------------------|
A--------------7------7-----------10-----------9------I----2---3--2v-I-----|
E--3-3->>>--55---5--5---5->>>--88----8-->>--88----8--0000--0000000--00------------------------------------|
B----3333>>>>5555--5555555--00------------------------------------|
G--------------------------------------------------------------------------|
D--------------------------------------------------------------------------|
A--------------------------------------------------------------------------|
E--------------------------------------------------------------------------|


Guitar 2 play the SOLO in 02:42 seconds

E----0--0--0--0--0---0--0--0--0---0--0--0--0--0-0-0-0--0--0--0--0--0--|
B----12-12-12-12-12--13-13-13-13--12-12-10-10-8-8-8-10-10-10-12-12-12-|
G---------------------------------------------------------------------| x2
D---------------------------------------------------------------------|
A---------------------------------------------------------------------|
E---------------------------------------------------------------------|

E----000000000000--00-------------------------------|
B----555555555555--00-------------------------------|
G---------------------------------------------------------------------|
D---------------------------------------------------------------------|
A---------------------------------------------------------------------|
E---------------------------------------------------------------------|

It's oversimplified
It's oversimplified
It's oversimplifieeeeeeeeeeeeeeed


E----0000>>>>0000--0000000--00-------------------------------|
B----3333>>>>5555--5555555--00-------------------------------|
G---------------------------------------------------------------------|
D---------------------------------------------------------------------|
A---------------------------------------------------------------------|
E---------------------------------------------------------------------|

E------000000000000000------------------------------------------------|
B------555555555555555------------------------------------------------|
G---------------------------------------------------------------------|
D---------------------------------------------------------------------|
A---------------------------------------------------------------------|
E---------------------------------------------------------------------|

Pull the shades
Razor blades
You're so tragic
I hate you so but love you more
I'm so elastic
The things you say
Games you play
Dirty Magic

Guitar 1 & 2 DISTORTION 03:11

Chorus:
e||-----------------------------------------------------------|
B||-----------------------------------------------------------|
G||--7\9--9-9--9----7\9--9-9--9---------------7--7-7--9-7-7---|
D||--7\9--9-9--9----7\9--9-9--9---5-5--5-7-5--7--7-7--7-7-7---|x3
A||--5\7--7-7--7----5\7--7-7--7---5-5--5-5-5--5--5-5--5-5-5---|
E||-------------------------------3-3--3-3-3------------------|

ahhhhh ahhhhh

e||----------------------------------------0--|
B||----------------------------------------0--|
G||----------------------------------------0--|
D||--7-7--7-7-7--7\10-10-10-10--9-9-9-9----2--|
A||--7-7--7-7-7--7\10-10-10-10--9-9-9-9----2--|
E||--5-5--5-5-5--5\8--8--8--8---7-7-7-7----0--| End


This is my first Guitar Tab.
The song is Easy and perfect to play for 2 guitarist.
Good Luck!!

Xero-P 09-09-2005
 
 
Offspring - Dirty Magic Tab :: indexed at Ultimate Guitar.
Dirty Magic tabs @ 911Tabs

About the artist behind Dirty Magic Tab:

The Offspring (sometimes referred to simply as Offspring) are a popular and influential[8] American punk rock band from Garden Grove, California formed in 1984. Since its inception, the band's line-up has included Dexter Holland (lead vocals, guitar), Noodles (lead and rhythm guitars, backing vocals) and Greg K. (bass, backing vocals). Their current drummer is Pete Parada, formerly of Face to Face and Saves the Day, who has been with the band since 2007.

Since the release of their 1994 album Smash, which is the best-selling independent label album of all time,[9] The Offspring have achieved commercial success over five albums, with singles such as "Come Out and Play", and "Self Esteem". The band's next three albums, Ixnay on the Hombre, Americana and Conspiracy of One, were also successful, reaching platinum certification and gold status respectively.[10][11] Longtime drummer Ron Welty left The Offspring in early 2003, and was replaced by Atom Willard. Later that year, the band released their next album, Splinter, to moderate sales and fairly warm reviews. In 2005, The Offspring released a greatest hits album and toured in support of the compilation. Their next album, titled Rise and Fall, Rage and Grace, will be released on June 16, 2008 in Europe and a day later in the United States [12]; it can be streamed for free online, as well.[13]

To date, The Offspring have released eight studio albums, one compilation, four EPs and three DVD's[14], selling over 38 million albums worldwide[9], making them one of the best-selling punk acts of all time.[15] The band is credited, along with fellow California punk bands Green Day and Rancid, with reviving popular interest in punk rock in the United States during the mid-1990s.[16]

Indexed at Wikipedia.

Show us your talent, perform Dirty Magic Tab!

Here you can post a video or audio performance. Tell me more ...
Where can we find your performance? Tell me more ...
Your comment:
Please, log in to post your performance.