Artists by letter: A B C D E F G H I J K L M N O P Q R S T U V W X Y Z 0-9

 
Spare The Time Tab
Spare the Time - NeedtoBreathe
Tuning: Standard 
Key: G

Riff #1
e----------3---3---3---3---3---3---3---3-------------------------->
B----------3---3---3---3---3---3---3---3-------------------------->
G--------4---5---4---5---4---5---4---5---------------------------->
D----------------------------------------------------------------->
A----------------------------------------------------------------->
E----------------------------------------------------------------->

Riff #2
e----------------------------------------------------------------->
B----------------------------------------------------------------->
G----------0---0---0---0------------------------------------------>
D----------------------------------------------------------------->
A--------7---5---7---5-------------------------------------------->
E----------------------------------------------------------------->

Riff #3
e----------------------------------------------------------------->
B----------------------------------------------------------------->
G----------------------------------------------------------------->
D----------12---12---12---12-------------------------------------->
A--------9----9----9----9----------------------------------------->
E----------------------------------------------------------------->

Intro: Riff #1 for 2 measures

Verse:
          R#1  (4 mes.) --->
Would you like to come out and see us...?
             R#2 (2 mes.)
Or would you like to answer the questions
             R#1 (2 mes.)
Of what went wrong with women and men
       R#3 (1 mes.)         R#2 (1 mes.)        R#1 (2 mes.)                
Do you think that you could ever put it on the line?
       R#3 (1 mes.)         R#2 (1 mes.)   R#1  
Do you think that you could even spare the time?

Outro: (Riff #1) for 1 measure then slow to end on G-string, fret 4

Basic Chord reference:
Riff #1 alternates between G and G4
Riff #2 alternates between Em and D4
RIff #3 D/F#

I strongly recommend listening to the actual song for the timing and 
how long to play each riff. The rhythm is simple, but the timing of 
the lyrics can be confusing. I indicated where the down beat of a 
phrase was with the placement of the "R#1", "R#2", etc. with respect 
to the lyrics. I hope this helps. Sweet song by the way, fun to play.
Open to suggestions/adjustments.
Enjoy! =)



 
 
Needtobreathe - Spare The Time Tab :: indexed at Ultimate Guitar.
Spare The Time tabs @ 911Tabs

About the artist behind Spare The Time Tab:

Late 2006-Early 2007[1][2]

Genre

Christian rock, CCM

Length

52:35

Label

Atlantic/Word

Producer

Rick Beato, Ed Roland[1]

Professional reviews

All Music Guide link
Jesus Freak Hideout link
Needtobreathe chronology

Daylight
(2006)

The Heat
(2007)

The Heat is the second studio album by the Christian rock band Needtobreathe, released on August 28, 2007 under Atlantic/Word Records.[3] The album reached #164 on Billboard's Top 200 and #2 on the Top Heatseekers charts.[4] The first single from the album, "Signature of Divine (Yahweh)", reached #1 on CHR R&R charts[citation needed], and was the #14 most played song in 2007 on Christian Hit Radio[5]. The Heat was GMA Dove Award-nominated for "Rock/Contemporary Album of the Year", as well as "Rock/Contemporary Song of the Year" for the song "Signature of Divine (Yahweh)".[6]

Indexed at Wikipedia.

Show us your talent, perform Spare The Time Tab!

Here you can post a video or audio performance. Tell me more ...
Where can we find your performance? Tell me more ...
Your comment:
Please, log in to post your performance.