Artists by letter: A B C D E F G H I J K L M N O P Q R S T U V W X Y Z 0-9

 
Cage 9 - Beg For Mercy Tab
-------------------------------------------------------------------------------
			     Beg For Mercy - Cage 9
-------------------------------------------------------------------------------
Tabbed by: Ben Hodges
Email: [email protected]

Tuning: C# G# C# F# A# D#

http://myspace.com/cage9

Main riff/verse/Chorus:
Part 1:
D#|-----------------------------|-------------------------------|
A#|-----------------------------|-------------------------------|
F#|-----------------------------|-------------------------------|
C#|-----------------------------|-------------------------------|
G#|-----------------------------|-------------------------------|
C#|-0---12-0--12---0---12-0--12-|-0---12-0--12---0---0-14-14-10-|  

Part 2:
D#|-------------------------|--------------------------|
A#|-------------------------|--------------------------|
F#|-------------------------|--------------------------|
C#|-------------------------|--------------------------|
G#|-----5----5-------5----5-|-----5----5---------------|
C#|-3-----3------3-----3----|-3-----3------0---0-3-3-5-|  

Sometimes, it's played  [Part 1 x4], others it's played [Part 1 x2, Part 2 x1, Part 1 x1]
Very simple song, easy to play along to and figure out.



Bridge:

D#|----------------|----------------|
A#|----------------|----------------|
F#|----------------|-2---2----------|
C#|-3---3-3-5---5--|-0---0---3--5-3-|
G#|-1---1-0-5---5--|-0---0---3--5-0-|
C#|---------5---5--|-0---0---3--5---|

First time though, play bridge 1.5 times, then main riff part 1.
Second time though, play bridge 1.5 times, then play triplet pattern on low C# string, 7th fret.



| /  slide up
| \  slide down
| h  hammer-on
| p  pull-off
| ~  vibrato
| +  harmonic
| x  Mute note
===============================================================================
 
 
Misc Unsigned Bands - Cage 9 - Beg For Mercy Tab :: indexed at Ultimate Guitar.
Cage 9 - Beg For Mercy tabs @ 911Tabs

Quick tip, so you can enjoy Cage 9 - Beg For Mercy Tab even more:

If you don't really know how to deal with "Absus4" chord and his equally confusing brothers, just put the mouse cursor over them and you will be shown a helpful chord diagram.

Show us your talent, perform Cage 9 - Beg For Mercy Tab!

Here you can post a video or audio performance. Tell me more ...
Where can we find your performance? Tell me more ...
Your comment:
Please, log in to post your performance.