Artists by letter: A B C D E F G H I J K L M N O P Q R S T U V W X Y Z 0-9

 
Gifted Hands Tab
This is my first ever tab. I decided to tab this song because it one of my favourites
between this, still unbroken, floyd or comin' back for more) on the God & Guns album. That
Because it is the song most like old Skynyrd. However, I think new skynyrd is also 
Please rate but don't rate the chords because they mightn't be right but if they are do
them.)

Band-Lynyrd Skynyrd
Song-Gifted Hands
Album-God & Guns
Tuning-Standard

Intro
Guitar 1 Clean (0:00 - 0:11)
 E----------------------------------|
 B----------------------------------|
 G----9-7---9-7---9-7-5~-5p4-5p4----|
 D-------9~----7~---------------5-5-|
 A--------------------------------5-|
 E----------------------------------|

Guitar 2 Distortion (0:12-0:14)
 E----------|
 B----------|
 G----------|
 D--------3-|
 A---3-3h5--|
 E----------|

Guitar 1 Very slight Distortion- There are chords in the back ground Not too sure which.
think the first is a G but can't tell what the rest are.
0:15 - 0:25
 E----------------------------------|
 B----------------------------------|
 G----9-7---9-7---9-7-5~-5p4-5p4----|
 D-------9~----7~---------------5-5-|
 A--------------------------------5-|
 E----------------------------------|

Guitar 1 chords

verse 1
[G + 3rd fret B string]
I remember the day that he came in
[D]
I can't belive How long it's been
[C]
Like a poet he began to play
[A minor]
----------------------------------
Repeat Sequence through out the verses

Chord shapes

 [G+3B][D] [C] [Am]
 E--3---2---x---x---|
 B--3---3---1---1---|
 G--0---2---0---2---|
 D--0---0---2---2---|
 A--2---x---3---0---|
 E--3---x---x---x---|

chorus
[G]
'Cause I know he's here
[D]
He's everywhere
[C]
Take a look around oh and you'll see
[A]
That cross we bear
[Am]
Lord we thank you for these gifted hands

Solo
 E-------------------------------------|
 B-------------------------------------|
 G--5b>10-15b>171410-15b>171410-15b>1717
 
 
Lynyrd Skynyrd - Gifted Hands Tab :: indexed at Ultimate Guitar.
Gifted Hands tabs @ 911Tabs

About the artist behind Gifted Hands Tab:

Lynyrd Skynyrd (pronounced /ˌlɛnɚdˈskɪnɝd/,Leh-Nerd Skin-Nerd) is an American Southern rock band. The band became prominent in the Southern United States in 1973, and rose to worldwide recognition before several members, including lead vocalist and primary songwriter Ronnie Van Zant, were killed in a plane crash in 1977 near McComb, Mississippi. A tribute band was formed in 1987 for a reunion tour with Johnny Van Zant, Ronnie's younger brother, at the helm, and continues to record music today.

The band was inducted into the Rock and Roll Hall of Fame on March 13, 2006, with members Gary Rossington and Billy Powell, former members Ed King, Bob Burns, and Artimus Pyle, and deceased members Ronnie Van Zant, Allen Collins, Steve Gaines, and Leon Wilkeson.

Indexed at Wikipedia.

Show us your talent, perform Gifted Hands Tab!

Here you can post a video or audio performance. Tell me more ...
Where can we find your performance? Tell me more ...
Your comment:
Please, log in to post your performance.