Artists by letter: A B C D E F G H I J K L M N O P Q R S T U V W X Y Z 0-9

 
Backstabber Tab
 -- Kesha - Backstabber --

standard tuning EADGBE

tabbed by x-tasha-x

Hey this song is kinda the same all the way through except from the bridge =D
                                          
Intro:
E||------------------|  |--------------------|
B||------------------|  |--------------------|
G||-9----------------|x3|-9--77--------1212--|
D||-9--1010--10--77--|  |-9--77--1010--1212--|
A||-7-1010--10--77--|  |-7--55--1010--1010--|
E||----8 8---8---55--|  |--------8-8---------|


Verse:(x2)
Bored, stoned sittin in your basement... 
E||------------------|  |--------------------|
B||------------------|  |--------------------|
G||-9----------------|x3|-9--77--------1212--|
D||-9--1010--10--77--|  |-9--77--1010--1212--|
A||-7-1010--10--77--|  |-7--55--1010--1010--|
E||----8 8---8---55--|  |--------8-8---------|


Chorus:(x2)
Girl your such a backstabber...
E||------------------|  |--------------------|
B||------------------|  |--------------------|
G||-9----------------|x3|-9--77--------1212--|
D||-9--1010--10--77--|  |-9--77--1010--1212--|
A||-7-1010--10--77--|  |-7--55--1010--1010--|
E||----8 8---8---55--|  |--------8-8---------|


Pre verse 2:
E||-----------------------------------|  
B||-----------------------------------|  
G||-9-----------------9---------------|
D||-9--1010--10--77---9--1010--10-----|  
A||-7-1010--10--77---7--1010--10-----|  
E||----8 8---8---55------8-8---8------|  


Verse 2:(x2)
I'm sick and tired of hearin about...
E||------------------|  |--------------------|
B||------------------|  |--------------------|
G||-9----------------|x3|-9--77--------1212--|
D||-9--1010--10--77--|  |-9--77--1010--1212--|
A||-7-1010--10--77--|  |-7--55--1010--1010--|
E||----8 8---8---55--|  |--------8-8---------|


CHORUS

Bridge:
Katie's to the left repping my style... 
E||-------------------------------|  |--------------------|
B||-------------------------------|  |--------------------|
G||-9999-4444-55555555------7777--|x3|-9--77--------1212--|
D||-9999-4444-55555555-5555-7777--|  |-9--77--1010--1212--|
A||-77772222-33333333-5555-5555--|  |-7--55--1010--1010--|
E||--------------------3333-------|  |--------8-8---------|

then:
E||------------------|  |--------------------|
B||------------------|  |--------------------|
G||-9----------------|x2|-9--77--------1212--|
D||-9--1010--10--77--|  |-9--77--1010--1212--|
A||-7-1010--10--77--|  |-7--55--1010--1010--|
E||----8 8---8---55--|  |--------8-8---------|


Chorus:(x2)
Girl your such a backstabber...
E||------------------|  |--------------------|
B||------------------|  |--------------------|
G||-9----------------|x3|-9--77--------1212--|
D||-9--1010--10--77--|  |-9--77--1010--1212--|
A||-7-1010--10--77--|  |-7--55--1010--1010--|
E||----8 8---8---55--|  |--------8-8---------|


End With:(x2)
E||------------------|  |--------------------|
B||------------------|  |--------------------|
G||-9----------------|x3|-9--77--------1212--|
D||-9--1010--10--77--|  |-9--77--1010--1212--|
A||-7-1010--10--77--|  |-7--55--1010--1010--|
E||----8 8---8---55--|  |--------8-8---------|

 
 
Kesha - Backstabber Tab :: indexed at Ultimate Guitar.
Backstabber tabs @ 911Tabs

Quick tip, so you can enjoy Backstabber Tab even more:

You might want to transpose the song if it is too high or too low for you to sing. Just click the desired option while playing a song and all the chords will automatically be transponded into a new key.

Show us your talent, perform Backstabber Tab!

Here you can post a video or audio performance. Tell me more ...
Where can we find your performance? Tell me more ...
Your comment:
Please, log in to post your performance.