Artists by letter: A B C D E F G H I J K L M N O P Q R S T U V W X Y Z 0-9

 
The Number Of The Beast Tab
-------------------------------------------------------------------------------
			    Number Of The Beast - Iron Madien
-------------------------------------------------------------------------------

By: Brian Irvine ([email protected])

This is A big long song so i hope u apprecate the work i put into it. Feel free to add me
to ur MSN contact list.

p:pull off
h: hammer on
s:slide
BU: bend up
BD: bend down

INTRO
e|---------------------------------------------------------------------------|
B|---------------------------------------------------------------------------|
G|---------------------------------------------------------------------------|
D|--------4---5---7-----7-----7-----7-----7-------4---5----------------------|
A|--5-5-5---5---5---5-5---5-5---5-5---5-5---5-5-5---5---5--------------------|
E|---------------------------------------------------------------------------|
  pm........................................................

VERSE
e|---------------------------------------------------------------------------|
B|---------------------------------------------------------------------------|
G|---------------------------------------------------------------------------|
D|-7-----7-----7-----7-----7-------4---5----7-----7-----7--------------------|
A|---5-5---5-5---5-5---5-5---5-5-5---5---5----5-5---5-5---5------------------|
E|---------------------------------------------------------------------------|
  pm..........................................................

e|---------------------------------------------------------------------------|
B|---------------------------------------------------------------------------|
G|---------------------------------------------------------------------------|
D|----7--------7---------2-----3------5--------5---------5-------------------|
A|-5-----5--5-----3-3-3-----3-----3------3--3-----3---3------3---------------|
E|---------------------------------------------------------------------------|
 pm..............................................................

e|---------------------------------------------------------------------------|
B|---------------------------------------------------------------------------|
G|---------------------------------------------------------------------------|
D|----5------5---------2-----3----7-------7--------7-------------------------|
A|-3----3--3----3-3-3-----3----3----5--5-----5--5-----5----------------------|
E|---------------------------------------------------------------------------|
  pm......................................................

e|---------------------------------------------------------------------------|
B|---------------------------------------------------------------------------|
G|---------------------------------------------------7-7-7-------------------|
D|----7--------7-----------4-----5--------7------7---7-7-7-------------------|
A|-5-----5--5-----5--5--5-----5----5---5----5--5-----5-5-5-------------------|
E|---------------------------------------------------------------------------|
  pm..............................................

Chours Hits Cont'd (this part needs good counting so listen to the song)
e|-----------------------------------------------------------------------------|
B|-----------------------------------------------------------------------------|
G|-7----7----------------------7-7-7-7------7---------------------7-7-7-7----7-|
D|-7----7----------------------7-7-7-7------7---------------------7-7-7-7----7-|
A|-5----5----------------------5-5-5-5------5---------------------5-5-5-5----5-|
E|-----------------------------------------------------------------------------|

Verse 2
e|---------------------------------------------------------------------------|
B|---------------------------------------------------------------------------|
G|-7-7-7-7----------7-7-7-7--------7-7-7-----7-7-7-7-------7-7---------------|
D|-7-7-7-7----------7-7-7-7--------7-7-7-----7-7-7-7-------7-7---------------|
A|-----------5-5--------------5-5---------5-----------5-5--------------------|
E|---------------------------------------------------------------------------|
          pm....           pm....       pm..        pm...
e|---------------------------------------------------------------------------|
B|---------------------------------------------------------------------------|
G|-7-7-------7-7-7-----7-7-7-7-------7-7-7-7-------7-7--7\-------------------|
D|-7-7-------7-7-7-----7-7-7-7-------7-7-7-7-------7-7--7\-------------------|
A|------5-5---------5-----------5-5-----------5-5-------5\-------------------|
E|---------------------------------------------------------------------------|
     pm....      pm...       pm.....        pm....

e|---------------------------------------------------------------------------|
B|---------------------------------------------------------------------------|
G|-------------------7-7-7-7-7--------7-7-7-7--------------------------------|
D|---------------7-7-7-7-7-7-7----7-7-7-7-7-7-5------------------------------|
A|-3-3-3-3-2---5-5-5-5-5-5-5-5--5-5-5-5-5-5-5-3------------------------------|
E|-----------3 
 
 
Iron Maiden - The Number Of The Beast Tab :: indexed at Ultimate Guitar.
The Number Of The Beast tabs @ 911Tabs

About the artist behind The Number Of The Beast Tab:

Iron Maiden are an English heavy metal band from Leyton in the East End of London. The band were formed in 1975 by bassist Steve Harris, formerly a member of Gypsy's Kiss and Smiler. Iron Maiden is one of the most successful and influential bands in the heavy metal genre, having sold over 80 million albums worldwide[1][2][3] without significant mainstream or radio support. The band won the Ivor Novello Awards for international achievement in 2002,[4] and were also inducted into the Hollywood RockWalk in Sunset Boulevard, Los Angeles County, California during their tour in the United States in 2005. Iron Maiden are influenced by Thin Lizzy, UFO, Wishbone Ash and Deep Purple amongst others.

Indexed at Wikipedia.

Show us your talent, perform The Number Of The Beast Tab!

Here you can post a video or audio performance. Tell me more ...
Where can we find your performance? Tell me more ...
Your comment:
Please, log in to post your performance.