Artists by letter: A B C D E F G H I J K L M N O P Q R S T U V W X Y Z 0-9

Pop Lock And Drop It Bass Tab - Huey


 
Pop Lock And Drop It Bass Tab
Artist- Huey
Song Name- Pop, Lock, And Drop It

I'm sure alot of ppl have heard this song. So i decided to find out the
tabs for it. There are 3 different parts, and i will show you each. I made
this for bass, because i play bass. Guitars can do it too, so it shouldn't
be that hard for you guys. Here it is:

The first bass part you hear at the very beginning goes like this:
G|----------------------------------------------|
D|----------------------------------------------|
A|----------------------------------------------|
E|0----0----0----0----0----0----0----1----------|
*Then on the drop-in, you can just slide down on any string

Next, is this part that is a little hard to hear, it sounds like chimes or
high-pitched bells. It starts playng at 0:10. Here's how that goes:
G|----------------------------------------------|
D|-----2---------4---------5---------7----------|
A|----------------------------------------------|
E|-0--------2---------3---------5---------------|

Then there's a part that sounds like static effects or something, really
hard to explain what it sounds like. It starts playin at 0:36. Here is how
it goes:
G|-----------------|  |-------------------------|
D|-----------------|  |-------------------------|
A|-----------------|x3|-------------------------|
E|0-1-0-1-3-1-0-1--|  |0-1-0-1-3-1-0------------|

G|0-1-0-1-3-1-0-1--|  |0-1-0-1-3-1-0------------|
D|-----------------|  |-------------------------|
A|-----------------|x3|-------------------------|
E|-----------------|  |-------------------------|

Well, that's it. Hopefully it helped. If it didn't, sorry. Thanks for viewing
 
 
Huey - Pop Lock And Drop It Bass Tab :: indexed at Ultimate Guitar.
Pop Lock And Drop It Bass tabs @ 911Tabs

Quick tip, so you can enjoy Pop Lock And Drop It Bass Tab even more:

If you don't really know how to deal with "Absus4" chord and his equally confusing brothers, just put the mouse cursor over them and you will be shown a helpful chord diagram.

Show us your talent, perform Pop Lock And Drop It Bass Tab!

Here you can post a video or audio performance. Tell me more ...
Where can we find your performance? Tell me more ...
Your comment:
Please, log in to post your performance.