Artists by letter: A B C D E F G H I J K L M N O P Q R S T U V W X Y Z 0-9

 
Vampire Heart Tab
  ARTIST: HIM                   
  SONG: VAMPIRE HEART           THIS SHOULD GIVE A PRETTY GOOD 
  TABBED BY: LSCHWEPPE          IDEA OF HOW TO PLAY THE SONG

  STANDARD TUNING: E A D G B E      JUST LISTEN TO THE SONG TO FIGURE
                                    EVERYTHING OUT.
   P.M. ^^^^^^^^                   
                                       
   PINCH HARMONIC *

  |--7--0--0--7--0--0--7--0--8--0--0--3--0--0--5--0--|
  |--------------------------------------------------|
  |--------------------------------------------------|
  |--------------------------------------------------|
  |--------------------------------------------------| 2x
  |--------------------------------------------------|


  |------------------------------|
  |------------------------------|
  |------------------------------|
  |------------------------------|
  |--5-5--5-5-5--5-5-5--2-2-2----| 
  |--3-3--3-3-3--5-5-5--2-2-2----|


  |-------------------------| 
  |-------------------------|
  |-------------------------|
  |-------------------------|
  |--5h7--7-7-7-7--3-3-3-3--| 2x
  |--5h7--7-7-7-7--3-3-3-3--|


  |------------------------------|
  |------------------------------|
  |------------------------------|
  |------------------------------|
  |--5-5--5-5-5--5-5-5--2-2-2----|
  |--3-3--3-3-3--5-5-5--2-2-2----| 


  |-------------------------|
  |-------------------------|
  |-------------------------|
  |--7/9--9-9-9--5-5-5-5----|
  |--5/7--7-7-7--3-3-3-3----| 2X
  |-------------------------|


  |------------------------------|
  |------------------------------|
  |------------------------------|
  |------------------------------|   
  |--5-5--5-5-5--5-5-5--2-2-2----|
  |--3-3--3-3-3--5-5-5--2-2-2----|


  |--2-----2-----0-----0-----3-----3-----0-----0-----|
  |----3-3---3-3---3-3---3-3---3-3--3-3----3-3---3-3-|
  |--------------------------------------------------|
  |--------------------------------------------------|
  |--------------------------------------------------| 4X 
  |--------------------------------------------------|  
                                                          


  |----------------------------------|
  |----------------------------------|
  |----------------------------------|
  |----------------------------------|
  |-5-5-5-5-5-5-5-5-5----------------|
  |-3-3-3-3-3-3-3-3-3-3-3-3-3-3-5~~--|
 P.M. ^ ^ ^ ^ ^ ^ ^ ^

                                                       
  |----------------------------------------------------|
  |----------------------------------------------------|
  |----------------------------------------------------|
  |-2--2-2--5--5-5-------------------------------------|
  |-2--2-2--3--3-3---5--5-5--5--5-5----2--2-2--3--3-3--|
  |-0--0-0---------0-3--3-3--5--5-5--0-2--2-2--3--3-3--|

                                                  PLAY THE CHORUS 2X
  |--------------------------------------|
  |--------------------------------------|
  |--------------------------------------|
  |-0-7-4-0-5-4-0-7-4-0-5-4-0-7-4-0-5-4--|
  |--------------------------------------|
  |--------------------------------------|


  
  
  |----------------------------------------|
  |----------------------------------------|
  |----------------------------------------|
  |-------------------------------7*~~-----|
  |----------------------------------------| 4X
  |---0-10-8-0-8-7-0-10-8-0-8-7-0----------|
 P.M. ^  ^ ^ ^ ^ ^ ^  ^ ^ ^ ^ ^ ^


  |-----------------------------------------|
  |-----------------------------------------|
  |-----------------------------------------|
  |----------------------------------7*~~---|
  |----12-10---10\9---12\10---10\9----------|
  |--0-10-8--0-8-\7-0-10\8--0-8-\7-0--------| 3X
                              P.M. ^

  |----------------------------------------------------|
  |----------------------------------------------------|
  |----------------------------------------------------|
  |----------------------------------7*~~--7*~~--7*~~--|
  |----12-10---10\9---12\10---10\9---------------------|
  |--0-10-8--0-8-\7-0-10\8--0-8-\7-0-----0-----0-------|
                              P.M. ^ P.M.^ P.M.^


  |----------------------------------------------------|
  |----------------------------------------------------|
  |----------------------------------------------------|
  |----------7--7-7------------------------------------|
  |--4--4-4--5--5-5---7--7-7--7--7-7---4--4-4--5--5-5--|
  |--2--2-2---------0-5--5-5--7--7-7-0-4--4-4--5--5-5--|

                                            PLAY THIS 2X
  |---------------------------------------|        
  |---------------------------------------|
  |---------------------------------------|
  |--0-7-4-0-5-4-0-7-4-0-5-4-0-7-4-0-5-4--|
  |---------------------------------------|
  |---------------------------------------|


  |--------------------------------|
  |--------------------------------|
  |--------------------------------|
  |--------------------------------| PLAY 16X 
  |--------------------------------|
  |--0-10-8-0-8-7-0-10-8-0-8-7-----| OR YOU COULD JUST PLAY IT FOR THE 
 P.M.^  ^ ^ ^ ^ ^ ^  ^ ^ ^ ^ ^       LAST 30 SECONDS
  
              
                          PLEASE RATE



 
 
Him - Vampire Heart Tab :: indexed at Ultimate Guitar.
Vampire Heart tabs @ 911Tabs

Quick tip, so you can enjoy Vampire Heart Tab even more:

YourChords.com Guitar Chords and Tabs Archive is currently indexing over 240'000 songs from 21'000+ different artists. And new chords just keep on coming in, so you will surely never run out of them.

Show us your talent, perform Vampire Heart Tab!

Here you can post a video or audio performance. Tell me more ...
Where can we find your performance? Tell me more ...
Your comment:
Please, log in to post your performance.