Artists by letter: A B C D E F G H I J K L M N O P Q R S T U V W X Y Z 0-9

 
Gone With The Sin Tab
Song         : gone with the sin
Album        : Razorblade Romance

[Pjesa 1]
I love your skin oh how so white
I love your touch cold as ice
And I love every single tear you cry

I just love the way you're losing your life
                                        F
e---------------------------------------1-|
B---------------------------------------1-|
G---------------------------------------2-|
D---------------------------------------3-|
A---------------------------------------3-|
E---------------------------------------1-|

[Ref]
   Am          G           F           C        G
e--0-00-0-00---3-33-3-33---1-11-1-11-----------------------|
B--1-11-1-11---0-00-0-00---1-11-1-11---------1-------------|
G--2-22-2-22---0-00-0-00---2-22-2-22-------0---------------|
D--2-22-2-22---0-00-0-00---3-33-3-33-----2----------0-2----|
A--0-00-0-00---2-22-2-22---3-33-3-33---3----------2--------|
E--0-----------3-33-3-33---0--------------------3----------|
   Wowoo o o o o my Baby,  how beautiful you are

   Am          G           F           C        G
e--0-00-0-00---3-33-3-33---1-11-1-11-----------------------|
B--1-11-1-11---0-00-0-00---1-11-1-11---------1-------------|
G--2-22-2-22---0-00-0-00---2-22-2-22-------0---------------|
D--2-22-2-22---0-00-0-00---3-33-3-33-----2----------0-2----|
A--0-00-0-00---2-22-2-22---3-33-3-33---3----------2--------|
E--0-----------3-33-3-33---0--------------------3----------|
   Wowoo o o o o my Darling, completely torn apart

   Am          G           F           C        G
e--0-00-0-00---3-33-3-33---1-11-1-11-----------------------|
B--1-11-1-11---0-00-0-00---1-11-1-11---------1-------------|
G--2-22-2-22---0-00-0-00---2-22-2-22-------0---------------|
D--2-22-2-22---0-00-0-00---3-33-3-33-----2----------0-2----|
A--0-00-0-00---2-22-2-22---3-33-3-33---3----------2--------|
E--0-----------3-33-3-33---0--------------------3----------|
You're gone with the sin my Baby and beautiful you are


   Am          G               F
e--0-00-0-00---3-33-3-33-------1-----|
B--1-11-1-11---0-00-0-00-------1-----|
G--2-22-2-22---0-00-0-00-------2-----|
D--2-22-2-22---0-00-0-00-------3-----|
A--0-00-0-00---2-22-2-22-------3-----|
E--0-----------3-33-3-33-------1-----|
 You're gone with the sin my Darling

[pjesa 2]
N kt pjes luan vetm bass-kitara

G-----------------------------------|
D-----------------------------------|
A-----------------------------------| x2
E-5-5-5-5-5-0-3-5--3-3-3-3-3-0-0-3--|
I adore the despair in your eyes

G-----------------------------------|
D-----------------------------------|
A-----------------------------------| x2
E-5-5-5-5-5-0-3-5--3-3-3-3-3-0-0-3--|
I worship your lips once red as wine

G-----------------------------------|
D-----------------------------------|
A-----------------------------------| x2
E-5-5-5-5-5-0-3-5--3-3-3-3-3-0-0-3--|
I crave for your scent sending shivers down my spine

G-----------------------------------||-----|
D-----------------------------------||-----|
A-----------------------------------||-----|
E-5-5-5-5-5-0-3-5--3-3-3-3-3-0-0-3--||--1--|    Ktu I bashkngjitet kitara
I just love the way you're running out of life               
                                            F        
 
 
Him - Gone With The Sin Tab :: indexed at Ultimate Guitar.
Gone With The Sin tabs @ 911Tabs

Quick tip, so you can enjoy Gone With The Sin Tab even more:

Try out the AutoScroller option ... It scrolls the page for you, so you can totally focus on nailing that solo. You can choose among different speeds using your mouse or your keyboard (keys 0, 1, 2 and 3).

Show us your talent, perform Gone With The Sin Tab!

Here you can post a video or audio performance. Tell me more ...
Where can we find your performance? Tell me more ...
Your comment:
Please, log in to post your performance.