Artists by letter: A B C D E F G H I J K L M N O P Q R S T U V W X Y Z 0-9

 
I Shot The Maid Tab
Personally this is my favorite song off of "No Rain, No Rainbow." It's intense, jumpy
frenetic. It should be 99% accurate... it's just that the Guitar 2 part during the verses
a little hard to pick up... but we only care about Guitar 1 right? And during the 
there's some complicated rhythms so the number of strums may or may not be right but
sure you'll figure them out :P. ENJOY!! Comments and ratings are greatly appreciated =].

**UPDATED 4/19/10**
--fixed Guitar 2 Verse harmony by a shitload!

Greeley Estates
"I Shot the Maid"
No Rain, No Rainbow

INTRO/CHORUS---
Guitar 1:
(0:00)
|-----------------------------------------------------------------|
|-----------------------------------------------------------------|
|-7-7-7-7-7-7-7-7-6-6-6-6-6-6-6-6-5-5-5-5-5-5-5-5-----------------|
|-x-x-x-x-x-x-x-x-x-x-x-x-x-x-x-x-x-x-x-x-x-x-x-x-6-6-6-6-6-6-6-6-|
|-5-5-5-5-5-5-5-5-4-4-4-4-4-4-4-4-3-3-3-3-3-3-3-3-6-6-6-6-6-6-6-6-|
|-------------------------------------------------6-6-6-6-6-6-6-6-|

(0:05)
|-----------------------------------------------------------------|
|-----------------------------------------------------------------|
|-7-7-7-7-7-7-7-7-6-6-6-6-6-6-6-6-5-5-5-5-5-5-5-5-----------------|
|-x-x-x-x-x-x-x-x-x-x-x-x-x-x-x-x-x-x-x-x-x-x-x-x-6-6-6-6-6-6-6-6-|
|-5-5-5-5-5-5-5-5-4-4-4-4-4-4-4-4-3-3-3-3-3-3-3-3-6-6-6-6-6-6-6-6-|
|-------------------------------------------------6-6-6-6-6-6-6-6-|

Guitar 2:
(0:00)
|-----------------------------------------------------------------|
|-6-6-6-6-6-6-6-6-6-6-6-6-6-6-6-6-6-6-6-6-6-6-6-6-3-3-3-3-3-3-3-3-|
|-x-x-x-x-x-x-x-x-x-x-x-x-x-x-x-x-x-x-x-x-x-x-x-x-x-x-x-x-x-x-x-x-|
|-3-3-3-3-3-3-3-3-3-3-3-3-3-3-3-3-3-3-3-3-3-3-3-3-0-0-0-0-0-0-0-0-|
|-----------------------------------------------------------------|
|-----------------------------------------------------------------|

(0:05)
|-----------------------------------------------------------------|
|-6-6-6-6-6-6-6-6-6-6-6-6-6-6-6-6-6-6-6-6-6-6-6-6-3-3-3-3-3-3-3-3-|
|-x-x-x-x-x-x-x-x-x-x-x-x-x-x-x-x-x-x-x-x-x-x-x-x-x-x-x-x-x-x-x-x-|
|-3-3-3-3-3-3-3-3-3-3-3-3-3-3-3-3-3-3-3-3-3-3-3-3-0-0-0-0-0-0-0-0-|
|-----------------------------------------------------------------|
|-----------------------------------------------------------------|

VERSE 1 Part 1--- [Guitar 1 only]
Guitar 1:
(0:10)
"I can't believe I've..."
|---------------------------------|
|---------------------------------|
|---------------------------------|
|---------------------------------|
|-----3-0-6-0---3-------6-------3-|
|-0-4---------4---0-0-0---0-4-0---|
                  . . .   .   .

(0:13)
"done this horrible thing..."
|---------------------------------|
|---------------------------------|
|---------------------------------|
|---------------------------------|
|-----3-0-6-0---3---6-------3---2-|
|-0-4---------4---0---0-4-0---0---|
                  .   .   .   .

(0:15)
"I shot the maid, what..."
|---------------------------------|
|---------------------------------|
|---------------------------------|
|---------------------------------|
|-----3-0-6-0---3-------6-------3-|
|-0-4---------4---0-0-0---0-4-0---|
                  . . .   .   .

(0:18)
"more can I say?..."
|---------------------|
|---------------------|
|---------------------|
|---------------------|
|-----3-0-6-0---3-----|
|-0-4---------4---2\\-| 
 
 
Greeley Estates - I Shot The Maid Tab :: indexed at Ultimate Guitar.
I Shot The Maid tabs @ 911Tabs

Quick tip, so you can enjoy I Shot The Maid Tab even more:

If you don't really know how to deal with "Absus4" chord and his equally confusing brothers, just put the mouse cursor over them and you will be shown a helpful chord diagram.

Show us your talent, perform I Shot The Maid Tab!

Here you can post a video or audio performance. Tell me more ...
Where can we find your performance? Tell me more ...
Your comment:
Please, log in to post your performance.