Artists by letter: A B C D E F G H I J K L M N O P Q R S T U V W X Y Z 0-9

 
Iou Tab
http://duff-loaded.com/


Duff Mckagan's Loaded - IOU
(Guitars are tuned Half Step down)
Tabbed By: Connor Smith 


Intro And Verse 1 & 2:

e|------------------------------|
B|------------------------------|
G|---------------5--5--5-5-5-5--|  
D|--7--7--7-7-7--5--5--5-5-5-5--| 
A|--7--7--7-7-7--3--3--3-3-3-3--| 
E|--5--5--5-5-5-----------------|

Chorus

e|------------------|
B|------------------| This part can also be strummed.
G|--7~------5~------|
D|--7~--7~--5~--5~--|
A|--5~--7~--3~--5~--|
E|------5~------3~--|

"I owe you.."
(No chord here and then repeat the verse)


Bridge & Verse 3

Guitar 1

e|----------------|--------------------------------------------|
B|----------------|--------------------------------------------|
G|--5-5-5---------|-7--7-7------------5-5-5--------------------|
D|--5-5-5--5--5-5-|-7--7-7--7--7-7-7--5-5-5--5--5-5-5-5-5-5-5--|
A|--3-3-3--5--3-5-|-5--5-5--7--7-7-7--1-1-1--5--5-5-5-5-5-5-5--|
E|---------3--3-3-|---------5--5-5-5---------3--3-3-3-3-3-3-3--|

Guitar 2

e|---------|---------|---------|
B|---------|---------|---------|
G|--5~-----|--7~-----|--5~-----|
D|--5~-----|--7~-----|--5~-----|
A|--3~-----|--5~-----|--3~-----|    
E|---------|---------|---------|


Playing Order
Intro
Verse 1
Chorus
Intro
Verse 2 
Chorus
Chorus
Bridge
Verse 3
 
 
Duff Mckagans Loaded - Iou Tab :: indexed at Ultimate Guitar.
Iou tabs @ 911Tabs
People who played Duff Mckagans Loaded - Iou Tab also played these songs by Duff Mckagans Loaded:
Sleaze Factory Tab, Iou Chords, Flatline Tab, Sick Tab, Seattlehead Tab, Iou Tab

Quick tip, so you can enjoy Iou Tab even more:

After the registration (which takes just 10 seconds, remember?) you will be able to use your profile - your very own piece of YourChords.com.

Show us your talent, perform Iou Tab!

Here you can post a video or audio performance. Tell me more ...
Where can we find your performance? Tell me more ...
Your comment:
Please, log in to post your performance.