Artists by letter: A B C D E F G H I J K L M N O P Q R S T U V W X Y Z 0-9

 
Unshakable Tab
This is my first tab. so i hope its helpful. just listen to the song to get the 
right rhythm/details.


h= hammer on
g= gradual bend

N.C.
--------------------------------------------------------|
--------------------------------------------------------|
-----------------------------5---4---------7--12g(14)---|
-----2h3---------3-0-5-3-2-0---0---0-3-2-0-7------------|
---5-----0-3-2---3-0-5-3-2-0-3-0-2-0-3-2-0-5------------|
---------------0-3-0-5-3-2-0---0---0-3-2-0--------------|


--------------------------------------------------------|
----------------------------------------------12g(13)---|
-----------------------------5---4---------7------------|
-----2h3---------3-0-5-3-2-0---0---0-3-2-0-7------------|
---5-----0-3-2---3-0-5-3-2-0-3-0-2-0-3-2-0-5------------|
---------------0-3-0-5-3-2-0---0---0-3-2-0--------------|


--------------------------------------------------------|
--------------------------------------------------------|
-----------------------------5---4---------7------------|
-----2h3---------3-0-5-3-2-0---0---0-3-2-0-7------------|
---5-----0-3-2---3-0-5-3-2-0-3-0-2-0-3-2-0-5------------|
---------------0-3-0-5-3-2-0---0---0-3-2-0--------------|


VERSE 1
D5
Help me walk through fire and come out higher than before
D5
I want to be strong so I can make it without breaking or giving up
         G5	     Fmaj7
Lift me up, lift me up

CHORUS
D5	                     F6
We become what we believe in, not denying who we are
G5	             D5 Fmaj7 G
We're living unshakable
D5	                          F6
Lights on, we're shining brighter, believing through the storm
G5	                N.C.
We're standing unshakable

VERSE 2
D5
Help me not to give in, come and live inside my heart
D5
I want to be like Jesus when He locked eyes with a great prize at the end
D5
Oh God, help me walk through fire and come out higher than before
D5
I want to be strong so I can make it without breaking or giving up
         G5	     Fmaj7
Lift me up, lift me up

CHORUS
D5	                     F6
We become what we believe in, not denying who we are
G5	             D5 Fmaj7 G
We're living unshakable
D5	                          F6
Lights on, we're shining brighter, believing through the storm
G5	               N.C.
We're standing unshakable


BRIDGE
D	                       Am7
Set my feet on the solid rock, let me stand on the mountain top
        G                                          D
Til the storm blows over and I'm still standing here
D/F#                           Cmaj7
Set my feet on the solid rock, let me stand on the mountain top
        G/B                                      D/A
Til the storm blows over and I'm still standing here
    D/F#                           Cmaj7
Oh, set my feet on the solid rock, let me stand on the mountain top
        G/B                                      D/A
Til the storm blows over and I'm still standing here
D                              Am7
Set my feet on the solid rock, let me stand on the mountain top
        G                                          D
Til the storm blows over and I'm still standing here
D                              Am7
Set my feet on the solid rock, let me stand on the mountain top
        G                                          D
Til the storm blows over and I'm still standing here

CHORUS
D5	                     F6
We become what we believe in, not denying who we are
G5	             D5 Fmaj7 G
We're living unshakable
D5	                          F6
Lights on, we're shining brighter, believing through the storm
G5	                N.C.
We're standing unshakable
D5	                     F6
We become what we believe in, not denying who we are
G5	             D5 Fmaj7 G
We're living unshakable
D5	                          F6
Lights on, we're shining brighter, believing through the storm
G5	                    N.C.	D5
We're standing unshakable, unshakable
 
 
Deluge - Unshakable Tab :: indexed at Ultimate Guitar.
Unshakable tabs @ 911Tabs

Quick tip, so you can enjoy Unshakable Tab even more:

Try out the AutoScroller option ... It scrolls the page for you, so you can totally focus on nailing that solo. You can choose among different speeds using your mouse or your keyboard (keys 0, 1, 2 and 3).

Show us your talent, perform Unshakable Tab!

Here you can post a video or audio performance. Tell me more ...
Where can we find your performance? Tell me more ...
Your comment:
Please, log in to post your performance.