Artists by letter: A B C D E F G H I J K L M N O P Q R S T U V W X Y Z 0-9

 
Star Tab
-------------------------------------------------------------------------------
			     STAR - David Bowie
-------------------------------------------------------------------------------
Tabbed by: Alexandre M.




Tuning: Standard




e|---------------------------------------------------------------------------|
B|---------------------------------------------------------------------------|
G|-5-5-5-5-5-5-5-5--------------------5-5-5-5-5-5-5-5------------------------|
D|-5-5-5-5-5-5-5-5--5-5-5-5-5-5-5-5---5-5-5-5-5-5-5-5--5-5-5-5-5-5-5-5-------|
A|-3-3-3-3-3-3-3-3--5-5-5-5-5-5-5-5---3-3-3-3-3-3-3-3--5-5-5-5-5-5-5-5-------|
E|------------------3-3-3-3-3-3-3-3--------------------3-3-3-3-3-3-3-3-------|


e|---------------------------------------------------------------------------|
B|---------------------------------------------------------------------------|
G|-5-5-5-5-5-5-5-5--------------------5-5-5-5-5-5-5-5------------------------|
D|-5-5-5-5-5-5-5-5--5-5-5-5-5-5-5-5---5-5-5-5-5-5-5-5--5-5-5-5-5-5-5-5-------|
A|-3-3-3-3-3-3-3-3--5-5-5-5-5-5-5-5---3-3-3-3-3-3-3-3--5-5-5-5-5-5-5-5-------|
E|------------------3-3-3-3-3-3-3-3--------------------3-3-3-3-3-3-3-3-------|



e|---------------------------------------------------------------------------|
B|---------------------------------------------------------------------------|
G|-5-5-5-5-5-5-5-5--------------------5-5-5-5-5-5-5-5------------------------|
D|-5-5-5-5-5-5-5-5--5-5-5-5-5-5-5-5---5-5-5-5-5-5-5-5--5-5-5-5---5---5-------|
A|-3-3-3-3-3-3-3-3--5-5-5-5-5-5-5-5---3-3-3-3-3-3-3-3--5-5-5-5---5---5-------|
E|------------------3-3-3-3-3-3-3-3--------------------3-3-3-3---3---2-------|
  Tony went to fight in belfast    /  Rudi stayed at home to starve



e|---------------------------------------------------------------------------|
B|---------------------------------------------------------------------------|
G|--------------------7-7-7-7-7-7-7-7------5--5---X--------------------------|
D|--2-2-2-2-2-2-2-2---7-7-7-7-7-7-7-7------5--5---X--5~~~--------------------|
A|--2-2-2-2-2-2-2-2---5-5-5-5-5-5-5-5------3--3---X--5~~~--------------------|
E|--0-0-0-0-0-0-0-0----------------------------------3~~~--------------------|
       I could make it all worthwhile as a rock&roll star



e|---------------------------------------------------------------------------|
B|---------------------------------------------------------------------------|
G|-5-5-5-5-5-5-5-5---------------------5-5-5-5-5-5-5-5-----------------------|
D|-5-5-5-5-5-5-5-5--5-5-5-5-5-5-5-5----5-5-5-5-5-5-5-5------5-5-5-5----------|
A|-3-3-3-3-3-3-3-3--5-5-5-5-5-5-5-5----3-3-3-3-3-3-3-3------5-5-5-5----------|
E|------------------3-3-3-3-3-3-3-3-------------------------3-3-3-3----------|
  Bevan tried to change the nation / Sonny wants to turn the world, well he can 



e|---------------------------------------------------------------------------|
B|---------------------------------------------------------------------------|
G|-------------------------------------7-7-7-7-7-7-7-7--------5--5---X-------|
D|--5---5------------2-2-2-2-2-2-2-2---7-7-7-7-7-7-7-7--------5--5---X--5~~~-|
A|--5---5------------2-2-2-2-2-2-2-2---5-5-5-5-5-5-5-5--------3--3---X--5~~~-|
E|--3---2------------0-0-0-0-0-0-0-0------------------------------------3~~~-|
  tell you that he tried / I could make a transformation as a rock & roll star


e|--------------------------------------------------------------------------------------|
B|--------------------------------------------------------------------------------------|
G|--7-7-7-7-7-7-7-7--9-9-9-9-9-9-9-9--10-10-10-10-10-10-10-10--12-12-12-12-12-12-12-12--|
D|--7-7-7-7-7-7-7-7--9-9-9-9-9-9-9-9--10-10-10-10-10-10-10-10--12-12-12-12-12-12-12-12--|
A|--5-5-5-5-5-5-5-5--7-7-7-7-7-7-7-7--8--8--8--8--8--8--8--8---10-10-10-10-10-10-10-10--|
E|--------------------------------------------------------------------------------------|
   Sooooooooooo      inviting,        soooooooooooo          enticing to play 


e|---------------------------------------------------------------------------|
B|---------------------------------------------------------------------------|
G|--9-9-9-9-9-9-9-9--------7-7-7-7-7-7-7-7---------5--5--X-------------------|
D|--9-9-9-9-9-9-9-9--------7-7-7-7-7-7-7-7---------5--5--X---5~~~------------|
A|--7-7-7-7-7-7-7-7--------5-5-5-5-5-5-5-5---------3--3--X---5~~~------------|
E|-----------------------------------------------------------3~~~------------|
    the part / I could play the wild mutation as a rock&roll star


e|---------------------------------------------------------------------------|
B|---------------------------------------------------------------------------|
G|---5-5---5-5---5-5---------------3-3---3-3---3-3---------------------------|
D|---5-5---5-5---5-5------5~~~-----3-3---3-3---3-3-----3~~~------------------|
A|---3-3---3-3---3-3------5~~~-----1-1---1-1---1-1-----3~~~------------------|
E|------------------------3~~~-------------------------1~~~------------------|
                         Get it all yeah!



e|---------------------------------------------------------------------------|
B|---------------------------------------------------------------------------|
G|---5-5---5-5---5-5---------------3--3~~~-----------------------------------|
D|---5-5---5-5---5-5------5~~~-----3--3~~~------------3~~~-------------------|
A|---3-3---3-3---3-3------5~~~-----1--1~~~------------3~~~-------------------|
E|------------------------3~~~------------------------1~~~-------------------|
                             Oh yeah



e|---------------------------------------------------------------------------|
B|---------------------------------------------------------------------------|
G|---------------------------------------5-5-5-5-5---------------------------|
D|---2--2--2--2--2--2--2--2--------------5-5-5-5-5-----5---5-----------------|
A|---2--2--2--2--2--2--2--2--------------3-3-3-3-3-----5---5-----------------|
E|---0--0--0--0--0--0--0--0----------------------------3---2-----------------|
          I    could    do   with   the  money



e|---------------------------------------------------------------------------|
B|---------------------------------------------------------------------------|
G|---------------------------------------5-5-5-5-5---------------------------|
D|---2--2--2--2--2--2--2--2--------------5-5-5-5-5-----5---5-----------------|
A|---2--2--2--2--2--2--2--2--------------3-3-3-3-3-----5---5-----------------|
E|---0--0--0--0--0--0--0--0----------------------------3---2-----------------|
    I'm so wiped out with things as they are


e|---------------------------------------------------------------------------|
B|---------------------------------------------------------------------------|
G|-----------------------7-7-7-7-7-7-7-7--------8-----------10-------12------|
D|---2-2-2-2-2-2-2-2-----7-7-7-7-7-7-7-7--------8-----------10-------12------|
A|---2-2-2-2-2-2-2-2-----5-5-5-5-5-5-5-5--------6-----------8--------10------|
E|---0-0-0-0-0-0-0-0---------------------------------------------------------|
   I'd send my photograph to my honey - and I'd c'mon like a regular superstar



e|---------------------------------------------------------------------------|
B|---------------------------------------------------------------------------|
G|-5-5-5-5-5-5-5-5--------------------5-5-5-5-5-5-5-5------------------------|
D|-5-5-5-5-5-5-5-5--5-5-5-5-5-5-5-5---5-5-5-5-5-5-5-5--5-5-5-5---5---5-------|
A|-3-3-3-3-3-3-3-3--5-5-5-5-5-5-5-5---3-3-3-3-3-3-3-3--5-5-5-5---5---5-------|
E|------------------3-3-3-3-3-3-3-3--------------------3-3-3-3---3---2-------|



e|---------------------------------------------------------------------------|
B|---------------------------------------------------------------------------|
G|--------------------7-7-7-7-7-7-7-7------5--5---X--------------------------|
D|--2-2-2-2-2-2-2-2---7-7-7-7-7-7-7-7------5--5---X--5~~~--------------------|
A|--2-2-2-2-2-2-2-2---5-5-5-5-5-5-5-5------3--3---X--5~~~--------------------|
E|--0-0-0-0-0-0-0-0----------------------------------3~~~--------------------|
        I could make a transformation as a rock&roll star


e|--------------------------------------------------------------------------------------|
B|--------------------------------------------------------------------------------------|
G|--7-7-7-7-7-7-7-7--9-9-9-9-9-9-9-9--10-10-10-10-10-10-10-10--12-12-12-12-12-12-12-12--|
D|--7-7-7-7-7-7-7-7--9-9-9-9-9-9-9-9--10-10-10-10-10-10-10-10--12-12-12-12-12-12-12-12--|
A|--5-5-5-5-5-5-5-5--7-7-7-7-7-7-7-7--8--8--8--8--8--8--8--8---10-10-10-10-10-10-10-10--|
E|--------------------------------------------------------------------------------------|
   Sooooooooooo      inviting,        soooooooooooo          enticing to play 


e|---------------------------------------------------------------------------|
B|---------------------------------------------------------------------------|
G|--9-9-9-9-9-9-9-9--------7-7-7-7-7-7-7-7---------5--5--X-------------------|
D|--9-9-9-9-9-9-9-9--------7-7-7-7-7-7-7-7---------5--5--X---5~~~------------|
A|--7-7-7-7-7-7-7-7--------5-5-5-5-5-5-5-5---------3--3--X---5~~~------------|
E|-----------------------------------------------------------3~~~------------|
    the part / I could play the wild mutation as a rock&roll star


e|---------------------------------------------------------------------------|
B|---------------------------------------------------------------------------|
G|---5-5---5-5---5-5---------------3-3---3-3---3-3---------------------------|
D|---5-5---5-5---5-5------5~~~-----3-3---3-3---3-3-----3~~~------------------|
A|---3-3---3-3---3-3------5~~~-----1-1---1-1---1-1-----3~~~------------------|
E|------------------------3~~~-------------------------1~~~------------------|
                         Get it all yeah!



e|---------------------------------------------------------------------------|
B|---------------------------------------------------------------------------|
G|---5-5---5-5---5-5---------------3--3~~~-----------------------------------|
D|---5-5---5-5---5-5------5~~~-----3--3~~~------------3~~~-------------------|
A|---3-3---3-3---3-3------5~~~-----1--1~~~------------3~~~-------------------|
E|------------------------3~~~------------------------1~~~-------------------|
                                      Oh yeah


e|---------------------------------------------------------------------------|
B|---------------------------------------------------------------------------|
G|---------------------------------------5-5-5-5-5---------------------------|
D|---2--2--2--2--2--2--2--2--------------5-5-5-5-5-----5---5-----------------|
A|---2--2--2--2--2--2--2--2--------------3-3-3-3-3-----5---5-----------------|
E|---0--0--0--0--0--0--0--0----------------------------3---2-----------------|
          I    could    do   with   the  money



e|---------------------------------------------------------------------------|
B|---------------------------------------------------------------------------|
G|---------------------------------------5-5-5-5-5---------------------------|
D|---2--2--2--2--2--2--2--2--------------5-5-5-5-5-----5---5-----------------|
A|---2--2--2--2--2--2--2--2--------------3-3-3-3-3-----5---5-----------------|
E|---0--0--0--0--0--0--0--0----------------------------3---2-----------------|
    I'm so wiped out with things as they are



e|---------------------------------------------------------------------------|
B|---------------------------------------------------------------------------|
G|-----------------------7-7-7-7-7-7-7-7--------8-----------10-------12------|
D|---2-2-2-2-2-2-2-2-----7-7-7-7-7-7-7-7--------8-----------10-------12------|
A|---2-2-2-2-2-2-2-2-----5-5-5-5-5-5-5-5--------6-----------8--------10------|
E|---0-0-0-0-0-0-0-0---------------------------------------------------------|
   I'd send my photograph to my honey - and I'd c'mon like a regular superstar



e|---------------------------------------------------------------------------|
B|---------------------------------------------------------------------------|
G|---------------------------------------------------------------------------|
D|---12-----------12-----------9-----------7----------------5---5---X--------|
A|---10-----------9------------7-----------5----------------3---3---X---5----|
E|----------------------------------------------------------------------3----|
                           I could fall asleep at night as a rock&roll star



e|--------------------------------------------------------------------------|
B|--------------------------------------------------------------------------|
G|---------------------------------------7----------------------------------|
D|-------------------------2-------------7-------------------5---5---X---5--|
A|---5-----------5---------2-------------5-------------------3---3---X---5--|
E|---3-----------2---------0---------------------------------------------3--|
                           I could fall in love all right as a rock&roll star



e|---------------------------------------------------------------------------|
B|---------------------------------------------------------------------------|
G|---5~~~-------10b12-----------------------------------3~~~-----------------|
D|---5~~~-----------------10b12p8-----------------------3~~~-----------------|
A|---3~~~-----------------------------10p8h10-----------1~~~-----------------|
E|---------------------------------------------------------------------------|
                           Rock'n'roll star




e|---------------------------------------------------------------------------|
B|---------------------------------------------------------------------------|
G|--------------10b12--------------------------------------------------------|
D|---6~~~----------------10b12p8------------------------5~~~-----------------|
A|---6~~~-----------------------------10p8h10-----------5~~~-----------------|
E|---4~~~-----------------------------------------------3~~~-----------------|
                            Rock'n'roll star         Bam bom bam  Watch me now




| /  slide up
| \  slide down
| h  hammer-on
| p  pull-off
| ~  vibrato
| +  harmonic
| x  Mute note
 
 
David Bowie - Star Tab :: indexed at Ultimate Guitar.
Star tabs @ 911Tabs

About the artist behind Star Tab:

"Ashes to Ashes" is a single by David Bowie, released in 1980. It made #1 in the UK and was the first cut from the Scary Monsters (and Super Creeps) album, also a #1 hit. As well as its musical qualities, it is noted for its innovative video, directed by Bowie and David Mallet. Bowie has said that with this song he was "wrapping up the seventies really for myself, and that seemed a good enough epitaph for it".[1]

Indexed at Wikipedia.

Show us your talent, perform Star Tab!

Here you can post a video or audio performance. Tell me more ...
Where can we find your performance? Tell me more ...
Your comment:
Please, log in to post your performance.