Artists by letter: A B C D E F G H I J K L M N O P Q R S T U V W X Y Z 0-9

 

For You Tab
Song : For You
Artist : Angus and Julia Stone
Album : Down The Way

standard tuning

Intro Acoustic Guitar :
    Am                           Em
E|--------------|--------------|--------------|--------------|
B|--1------1----|--1------1----|--0------0----|--0------0----|
G|-----2------2-|-----2------2-|-----0------0-|-----0------0-|   x4
D|----2------2--|----2------2--|----2------2--|----2------2--|
A|--0----0------|--0----0------|--------------|--------------|
E|--------------|--------------|--0----0------|--0----0------|

 Intro lead guitar :
E|-----------------------------------------|
B|-----------------------------------------|
G|--7p5/4--------7p5/4---------------------|  \
D|--------5/7----------5/7-----5-7^b-5-----|   \
A|-----------------------------------------|    \
E|-----------------------------------------|     \
                                                  x2
E|-----------------------------------------|     /
B|-----------------------------------------|    /
G|--7p5/4--------7p5/4---------------------|   /
D|--------5/7----------5/7-----------------|  /
A|---------------------------5/7-----------|
E|-----------------------------------------|


verse 1

    Am                           Em
E|--------------|--------------|--------------|--------------|
B|--1------1----|--1------1----|--0------0----|--0------0----|
G|-----2------2-|-----2------2-|-----0------0-|-----0------0-|
D|----2------2--|----2------2--|----2------2--|----2------2--|
A|--0----0------|--0----0------|--------------|--------------|
E|--------------|--------------|--0----0------|--0----0------|
             If I talk real slowly 
  
 Am                           Em
E|--------------|--------------|--------------|--------------|
B|--1------1----|--1------1----|--0------0----|--0------0----|
G|-----2------2-|-----2------2-|-----0------0-|-----0------0-|
D|----2------2--|----2------2--|----2------2--|----2------2--|
A|--0----0------|--0----0------|--------------|--------------|
E|--------------|--------------|--0----0------|--0----0------|

             If I try real hard 

   Am                           Em
E|--------------|--------------|--------------|--------------|
B|--1------1----|--1------1----|--0------0----|--0------0----|
G|-----2------2-|-----2------2-|-----0------0-|-----0------0-|
D|----2------2--|----2------2--|----2------2--|----2------2--|
A|--0----0------|--0----0------|--------------|--------------|
E|--------------|--------------|--0----0------|--0----0------|

             To make my point dear, 

   Am                           Em
E|--------------|--------------|--------------|--------------|
B|--1------1----|--1------1----|--0------0----|--0------0----|
G|-----2------2-|-----2------2-|-----0------0-|-----0------0-|
D|----2------2--|----2------2--|----2------2--|----2------2--|
A|--0----0------|--0----0------|--------------|--------------|
E|--------------|--------------|--0----0------|--0----0------|

             That you have my heart. 

   Am   
E|---------------|
B|--1------1-----|
G|-----2------2--|   x4
D|----2------2---|
A|--0----0-------|
E|---------------|
    Here I go 

    C              G             Am
E|--------------|--------------|--------------|--------------|
B|--1------1----|--0------0----|--1------1----|-1------1-----|
G|-----0------0-|-----0------0-|-----2------2-|----2-----2---|
D|----2------2--|----0------0--|----2------2--|---2-----2----|
A|--3----3------|--------------|--0----0------|-0----0-------|
E|--------------|--3----3------|--------------|--------------|
   
   I'll tell you, what you already know. 
  
  Am   
E|---------------|
B|--1------1-----|
G|-----2------2--|   x4
D|----2------2---|
A|--0----0-------|
E|---------------|
    Here I go 
  

    C              G             Am
E|--------------|--------------|--------------|--------------|
B|--1------1----|--0------0----|--1------1----|-1------1-----|
G|-----0------0-|-----0------0-|-----2------2-|----2-----2---|
D|----2------2--|----0------0--|----2------2--|---2-----2----|
A|--3----3------|--------------|--0----0------|-0----0-------|
E|--------------|--3----3------|--------------|--------------|

   I'll tell you, what you already know. 


   Am   
E|---------------|
B|--1------1-----|
G|-----2------2--|   x4
D|----2------2---|
A|--0----0-------|
E|---------------|
 
  If you love me, with all of your heart. 

    C   
E|---------------|
B|--1------1-----|
G|-----0------0--|   x4
D|----2------2---|
A|--3----3-------|
E|---------------|

   Am   
E|---------------|
B|--1------1-----|
G|-----2------2--|   x4
D|----2------2---|
A|--0----0-------|
E|---------------|

  If you love me, I'll make you 

     C              G             Am
E|--------------|--------------|--------------|--------------|
B|--1------1----|--0------0----|--1------1----|-1------1-----|
G|-----0------0-|-----0------0-|-----2------2-|----2-----2---|
D|----2------2--|----0------0--|----2------2--|---2-----2----|
A|--3----3------|--------------|--0----0------|-0----0-------|
E|--------------|--3----3------|--------------|--------------|

   star in my universe. 

     C              G             Am
E|--------------|--------------|--------------|--------------|
B|--1------1----|--0------0----|--1------1----|-1------1-----|
G|-----0------0-|-----0------0-|-----2------2-|----2-----2---|
D|----2------2--|----0------0--|----2------2--|---2-----2----|
A|--3----3------|--------------|--0----0------|-0----0-------|
E|--------------|--3----3------|--------------|--------------|
     you'll never have to go to work. 

    C              G             Am
E|--------------|--------------|--------------|--------------|
B|--1------1----|--0------0----|--1------1----|-1------1-----|
G|-----0------0-|-----0------0-|-----2------2-|----2-----2---|
D|----2------2--|----0------0--|----2------2--|---2-----2----|
A|--3----3------|--------------|--0----0------|-0----0-------|
E|--------------|--3----3------|--------------|--------------|

      you'll spend everyday, 

   C                 G            Am
E|--------------|--------------|-----|
B|--1------1----|--0------0----|--1--|
G|-----0------0-|-----0------0-|-----|
D|----2------2--|----0------0--|-----|
A|--3----3------|--------------|--0--|
E|--------------|--3----3------|-----|
    shining your light my way. 



: you can strum if you like

verse 2

Am              Em
If I talk real slowly 
Am              Em
If I hold your hand 
Am                Em
If you look real closely my love, 
Am            Em
you might understand. 


Am
Here I go 
C                    G           Am
I'll tell you, what you already know. 
Am
Here I go. 
Am                   G           Am
I'll tell you, what you already know. 


Am                                C
If you love me, with all that you are. 
Am                              C           G        Am
If you love me I'll make you a star in my universe 
    C         G            Am
you'll never have to go to work. 
 C          G     Am       
you'll spend everyday, 
C          G     Am       
shining your light my way. 


Guitar solo

E|-------------------------------------------------------------------|
B|-------------------------------------------------------------------|
G|--7-7-7-7h9-9-9-9-9-9-9p7-7-7-7-7-7-7h9-9-9-9-999999p7-7-7-7-7/16--|
D|-------------------------------------------------------------------|
A|-------------------------------------------------------------------|
E|-------------------------------------------------------------------|

E|-------------------------------------------------------------------|
B|-------------------------------------------------------------------|
G|-16-16-16/14-14-14/12-12-12/10-10-10/9--9-9h10-9-7-7^b7777777------|
D|-------------------------------------------------------------------|
A|-------------------------------------------------------------------|
E|-------------------------------------------------------------------|

E|-----------------------------------------|     
B|-----------------------------------------|    
G|--7p5/4--------7p5/4---------------------|   
D|--------5/7----------5/7-----------------|  
A|---------------------------5/7-----------|
E|-----------------------------------------|


Here I go 
I'll tell you, what you already know. 
Here I go. 
I'll tell you, what you already know. 

If you love me, with all of your heart. 
If you love me, I'll make you a star in my universe. 
you'll never have to go to work. 
you'll spend everyday, shining your light my way.


 
 
Angus And Julia Stone - For You Tab :: indexed at Ultimate Guitar.
For You tabs @ 911Tabs

Quick tip, so you can enjoy For You Tab even more:

YourChords.com Guitar Chords and Tabs Archive is currently indexing over 240'000 songs from 21'000+ different artists. And new chords just keep on coming in, so you will surely never run out of them.

Show us your talent, perform For You Tab!

Here you can post a video or audio performance. Tell me more ...
Where can we find your performance? Tell me more ...
Your comment:
Please, log in to post your performance.