Artists by letter: A B C D E F G H I J K L M N O P Q R S T U V W X Y Z 0-9

 
Over You Tab
Heres the RIGHT sounding for the tab Over You. I learned this on my own n i was thinking
those other tabs are hard and wrong so here is my right way what i do ok.

-- ELECTRIC GUITAR

D A U G H T R Y  -  O V E R  Y O U

****************************************************************

[[YOU STRUM ONTO THESE CHORDS]]

Now that its all said and done....

 11x  11x  5x   5x    11x
|-0----0----0----0----0------|
|-0----0----0----0----0------|
|-1----4----6----4----2------|
|-2----4----6----4----2------|
|-2----2----4----2----0------|
|----------------------------|


What u said when u left...

 11x  11x  5x   5x
|-0----0----0----0-----|
|-0----0----0----0-----|
|-1----4----6----4-----|
|-2----4----6----4-----|
|-2----2----4----2-----|
|----------------------|

[["U Strum fast onto these ones!"]]

I guess I let u get the best of me...
PRECHORUS:
  18x   6x  4x
|------------------------------------|
|------------------------------------|
|--3----2----4-----------------------|
|--4----2----4~----------------------|
|--4----0----2-----------------------|
|--2---------------------------------|

*******************************************************************
- - - - - - - - - - - - - - - - - - - - - - - - - - - - - - - - - -
[CHORUS]
Well I never saw it coming...
Im slowly getting closser..

|-0----0----0----0----0------|
|-0----0----0----0----0------|
|-1----4----6----4----2------| Repeat 2x
|-2----4----6----4----2------|
|-2----2----4----2----0------|
|-0--------------------------|

Cause the day i thought i never get through...

|------------------------------------|
|------------------------------------|
|--3----2----4-----------------------|
|--4----2----4~----------------------|
|--4----0----2-----------------------|
|--2---------------------------------|


- - - - - - - - - - - - - - - - - - - - - - - - - - - - - - - - - - -
**********************************************************************

[[This part is after the chorus.]]

|----------------------------|
|----------------------------|
|-1----5---7-----------------|
|-2----5---7-----------------|
|-2----3---5-----------------|
|----------------------------|

You took a hammer to these walls...


|-0----0----0----0----0------|
|-0----0----0----0----0------|
|-1----4----6----4----2------|
|-2----4----6----4----2------|
|-2----2----4----2----0------|
|----------------------------|


And when you slammed the front door shut


|-0----0----0----0-----|
|-0----0----0----0-----|
|-1----4----6----4-----|
|-2----4----6----4-----|
|-2----2----4----2-----|
|----------------------|


That you never were the best for me

|------------------------------------|
|------------------------------------|
|--3----2----4-----------------------|
|--4----2----4~----------------------|
|--4----0----2-----------------------|
|--2---------------------------------|

BACK TO CHORUS!!

[SOLO PART}i dont know the solo sorry.

|----------------------------|
|----------------------------|
|-1----5---7-----------------|
|-2----5---7-----------------|  repeat 2x
|-2----3---5-----------------|
|----------------------------|


well i never saw it coming,
|-0----0----0----0----|
|-0----0----0----0----|
|-1----4----6----4----|
|-2----4----6----4----|
|-2----2----4----2----|
|---------------------|

MORE than u more than u know!
|---------------------|
|---------------------|
|-4--4----------------|
|-4--4----------------|
|-2--2----------------|
|---------------------|

Well I never saw it coming...
Im slowly getting closser..

|-0----0----0----0----0------|
|-0----0----0----0----0------|
|-1----4----6----4----2------| Repeat 2x
|-2----4----6----4----2------|
|-2----2----4----2----0------|
|-0--------------------------|


{WHOA WHOA WHOA ....]

|-0----0----0----0----0------|
|-0----0----0----0----0------|
|-1----4----6----4----2------| Repeat 2x
|-2----4----6----4----2------|
|-2----2----4----2----0------|
|-0--------------------------|
'


cause the day i thought i never get through.
I got OVER YOU
|------------------------------------|
|------------------------------------|
|--3----2----4-----------------------|
|--4----2----4~----------------------|
|--4----0----2-----------------------|
|--2---------------------------------|


and that it and i made couple of mistakes liek how to strum n then but its all right if 
should get what i mean like everyhitng is right n use the same chords n try them n 
to the song its right and please RATE ME!

 
 
Daughtry - Over You Tab :: indexed at Ultimate Guitar.
Over You tabs @ 911Tabs

About the artist behind Over You Tab:

Daughtry (IPA: /ˈdoʊtriː/[4]) is an American Music Award-winning and Grammy-nominated rock band from North Carolina, formed by former American Idol finalist Chris Daughtry in 2006. Their self-titled debut album was released on November 21, 2006. The disc reached #1 for two non-consecutive weeks on the Billboard 200, outsold Idol winner Taylor Hicks' debut effort, sold more than 4 million copies and was named the number one selling album of 2007 by Billboard. Their album is also the fastest-selling debut rock album in Soundscan history.[5] The first single from the album, "It's Not Over", was the eighth most played song across all formats on U.S. radio in 2007, and their second single from the album, "Home", was the tenth most played song in the U.S. of 2007.[6]

Indexed at Wikipedia.

Show us your talent, perform Over You Tab!

Here you can post a video or audio performance. Tell me more ...
Where can we find your performance? Tell me more ...
Your comment:
Please, log in to post your performance.