Artists by letter: A B C D E F G H I J K L M N O P Q R S T U V W X Y Z 0-9

 
Siempre Me Dejas Chords
Siempre me dejas (Cover acustico)

Adaptada por Lois ([email protected])

      C     Cadd9     Am*     Am
e|----0-------3--------0-------0------------------------|
B|----1-------3--------0-------1------------------------|
G|----0-------0--------2-------2------------------------|
D|----2-------2--------2-------2------------------------|
A|----3-------3--------0-------0------------------------|
E|----0-------0--------0-------0------------------------|


Nota: 
El Am* se refiere a un acorde "La Menor" pero 
sin pisar el traste uno de la segunda cuerda.



   C		Cadd9    Am*

e|-8-----------10-------7-----------------------------------|
B|----0--------------------0-------8-----6-----5------------|
G|------0---0----------------0-------0-----0----------------| x4
D|------------------------------------0-----0---------------|
A|----------------------------------------------------------|
E|-8------8----8--------8-------8---------------------------|


C   Cadd9   Am*   x2


C            Am           G
S0lo déjame hablar, no quieres verme
C                    Am
tu me das aire para respirar
    G
un dia mas 

   Am
parece mentira
     C
que todo el mundo
    Am
de vueltas
        G
a tu alrededor..
      C        Am
pero tuuuuuuuuuu
              C        G
tu siempre me dejas

                        C   Cadd9   Am*  
Yo se que sientes algo maaaaaaaaaaaaaas

      C  Cadd9  Am*
Por miiiiiii


Am         C           Am
   perd0name, yo me resisto
      G           Am
a perderte otra vez
        C             Am
perd0name, es que no puedo


       G
verme lejos de ti

                        C   Cadd9   Am*  
Yo se que sientes algo maaaaaaaaaaaaaas   

      C  Cadd9  Am*
Por miiiiiii

                        C   Cadd9   Am*  
Yo se que sientes algo maaaaaaaaaaaaaas   

      C  Cadd9  Am*
Por miiiiiii



C    Am                 C      G
         Tu siempre me dejas 

C          Am          C
   perd0name, yo me resisto
      G           C
a perderte otra vez
        Am             C
perd0name, es que no puedo
       G
verme lejos de ti 

                        C   Cadd9   Am*  
Yo se que sientes algo maaaaaaaaaaaaaas   

      C  Cadd9  Am*
Por miiiiiii

                        C   Cadd9   Am*  
Yo se que sientes algo maaaaaaaaaaaaaas   

      C  Cadd9  Am*
Por miiiiiii





 
 
Insite - Siempre Me Dejas Chords :: indexed at Ultimate Guitar.
Siempre Me Dejas tabs @ 911Tabs

Quick tip, so you can enjoy Siempre Me Dejas Chords even more:

If you don't really know how to deal with "Absus4" chord and his equally confusing brothers, just put the mouse cursor over them and you will be shown a helpful chord diagram.

Show us your talent, perform Siempre Me Dejas Chords!

Here you can post a video or audio performance. Tell me more ...
Where can we find your performance? Tell me more ...
Your comment:
Please, log in to post your performance.