Artists by letter: A B C D E F G H I J K L M N O P Q R S T U V W X Y Z 0-9

She Moves In Her Own Way Tab (ver 4) - The Kooks


 
She Moves In Her Own Way Tab
 																																													She Moves In Her Own Way Tab									by The Kooks tabs |											tabbed by austieman | 									comments (2) 																																													1																							2																							3																							4																							5																																						   								 																	 									print																																							 									send																																							 									report																																																																																									More versions:																																			solos										versions																																																																																			 																																																																																																	Ver 1																																																																		Ver 2																																																																		Ver 3																																																																		Ver 4																																																																																																																						Ver 1																																																																		Ver 2																																																																		Ver 3																																																																													 																																																																																																																																																						Recommended tabs																																																											If you like She Moves In Her Own Way Tab by The Kooks you might also like these songs:																									Naive Tabby The Kooks																									Seaside Chordsby The Kooks																									Ooh La Chordsby The Kooks																																																																																																																																She Moves In Her Own Way Lyricsby The Kooks Lyrics																						She Moves In Her Own Way Tabat 911Tabs.com																																																						 																																																																																																																																																																																												 																																																																																																																												+ to speed up (numpad)															- to slow down (numpad)															Esc to stop																												Help																																																																																																																																																											She Moves In Her Own Way tab by The Kooks, www.Ultimate-Guitar.Com																																													Listen to She Moves In Her Own Way																																														Add to favourites																																																																				Difficulty: novice																																																																																			tf_artist = "The Kooks";											tf_song = "She Moves In Her Own Way";																																																												Ok, Gonna have a go at tabbing the whole song, lead and rhythm,
I'm feeling pretty good bout it and it sounds ok to me!
Hope you like it and feel free to comment!
Any people who feel this is completely wrong feel free to post your own version rather 
criticise
Cheers!
austieman

Artist: The Kooks
Song She Moves In Her Own Way
Album: Inside In Inside Out
Tuning: Standard (EADGBe)

Chords used: Right quick note, these can be played as open chords, I however play them 
barred so here they all are...

G:  355433
C:  x35553
D:  x57775
Am: 577555
Bm: x24432
Em: 022000

Where there is no lead, both guitars play rhythm, its up to you what you want though...
Rhythm Guitar is only the Chords, I will Tab the detail of the Lead Guitar underneath 
chords.

Intro:
    G                     C    G          C     D   G
e----------------------------------7------8----10------|
B------------------------------------------------------|
G------------------------------5/7----7/9----11----12--|
D------------------------------------------------------|
A------------------------------------------------------|
E------------------------------------------------------|

Verse 1:
        G                C
        So at my show on Monday
                     Am
        I was hoping someday
                         Bm     C      G
        You'd be on your way to better things
                            C
        It's not about your make-up
                          Am
        Or how you try to shape up
                 Bm       C     G
        To these tiresome paper dreams
              C             Bm           G
        Paper dreams, honey
       e-------------------------7--6/5--3~--|
       B-------------------------------------|
       G--------------------5/7--7--6/5--4~--|
       D-------------------------------------|
       A-------------------------------------|
       E-------------------------------------|

Verse 2:
         G                    C
         So now you pour your heart out
                                  Am
         You're telling me you're far out
                             Bm       C        G
         You're not about to lie down for your cause
                       C
         But you don't pull my strings
                    Am
         'Cos I'm a better man
         Bm           C      G
         Moving on to better things

Chorus:
         G       C
         Well uh oh, oh
                Am
         I love her because
             Bm       C       G
         She moves in her own way
                 C
         Well uh oh, oh
                  Am
         She came to my show
                 Bm      C      G
         Just to hear about my day

                              e--------------------------|
                              B--------------5---5--7/8--|
                              G-------5/7--7---7---------|
                              D--------------------------|
                              A--------------------------|
                              E--------------------------|

Verse 3:
         G                  C
         And at the show on Tuesday
                        Am
         She was in her mindset
                  Bm       C        G
         Tempered furs and spangled boots
                   C
         Looks are deceiving
                 Am
         Make me believe it
       e-----------------|
       B----------13p12--|
       G----------12~~~--|
       D-----------------|
       A-----------------|
       E-----------------|

                   Bm       C     G
         And these tiresome paper dreams
       e------------15----------|
       B--------15------15------|
       G-14/16--------------16--|
       D------------------------|
       A------------------------|
       E------------------------|

               C            Am
         Paper dreams, honey
       e---3---3---5---7---7---8---10--|
       B-------------------------------|
       G---4---4---5---7---7---9---11--|
       D-------------------------------|
       A-------------------------------|
       E-------------------------------|

          Bm   C   G
         Yeah
       e--------------15--|
       B------------------|
       G---12/14p12-------|
       D------------------|
       A------------------|
       E------------------|

Verse 4:
         G           C
         So wont you go far
                          Am
         Tell me you're a keeper
                      Bm       C        G
         Not about to lie down for your cause
                       C
         And you don't pull my strings
    (Fade in)
       e---15-15-15-15-15-15-15-15-15-15--|
       B---15-15-15-15-15-15-15-15-15-15--|
       G----------------------------------|
       D----------------------------------|
       A----------------------------------|
       E----------------------------------|
                    Am
         'Cos I'm a better man
       e---15-15-15-15-15-15-15-15-15-15--|
       B---15-15-15-15-15-15-15-15-15-15--|
       G----------------------------------|
       D----------------------------------|
       A----------------------------------|
       E----------------------------------|
         Bm           C      G
         Moving on to better things
       e---15-15-15-15-15-15--|
       B---15-15-15-15-15-15--|
       G----------------------|
       D----------------------|
       A----------------------|
       E----------------------|

Chorus:
         G       C
         Well uh oh, oh
                Am
         I love her because
             Bm       C       G
         She moves in her own way
                 C
         Well uh oh, oh
                  Am
         She came to my show
                 Bm      C      G
         Just to hear about my day
                                   e--------------|
                                   B--3--3h5p3h5--|
                                   G--------------|
                                   D--------------|
                                   A--------------|
                                   E--------------|

Interlude:
         Em     Bm          D
         Yes I wish that we never made it
         G                       D Em
         Through all the summers
         Em              Bm
         They're keeping us instead of
                 D
         Kicking us back
         G                   D Em
         Down through the suburbs
         Em     Bm          D
         Yes I wish that we never made it
         G                       D Em
         Through all the summers
         Em              Bm
         They're keeping us instead of
                 D
         Kicking us back
         G                   D Em
         Down through the suburbs

Solo
      Em       Bm                             D   G                D   Em
  e------------------------------------------------------------------------|
  B----------------------------8---10b12--8--10----12b13-13r12--10--12-----|
  G-----------------7-----7--9---9--------------7----------------------12--|
  D---------5--7/9-----9---------------------------------------------------|
  A--7p5h7-----------------------------------------------------------------|
  E------------------------------------------------------------------------|

   Em       Bm                             D                 C       G
  e-----------------------------17b18r17--15h17-------------------------|
  B-------------------------15-------------------17--15--13--12--10--12-|
  G--------------12--14/16-----------------------17--16--14--12--11--12-|
  D--14--12--14---------------------------------------------------------|
  A---------------------------------------------------------------------|
  E---------------------------------------------------------------------|

Final Chorus:
(Guitar Optional for first part)
        (G)     (C)
         Well uh oh, oh
               (Am)
         I love her because
            (Bm)     (C)      (G)
         She moves in her own way
         G        C
         Well uh oh, oh
                  Am
         She came to my show
                 Bm      C      G
         Just to hear about my day

         G       C
         Well uh oh, oh
                Am
         I love her because
             Bm       C       G
         She moves in her own way
                 C
         Well uh oh, oh
                  Am
         She came to my show
                 Bm      C      G (Slide to 0 and fade out)
         Just to hear about my day


Hey Presto! Its as easy as that!																																																																													tf_artist = "The Kooks";											tf_song = "She Moves In Her Own Way";																															         																																																																																																		

 
 
The Kooks - She Moves In Her Own Way Tab :: indexed at Ultimate Guitar.
She Moves In Her Own Way tabs @ 911Tabs
People who played The Kooks - She Moves In Her Own Way Tab also played these songs by The Kooks:
Naive Tab, Seaside Chords, Sway Chords, Naive Acoustic Chords, Young Folks Chords, Kids Tab, Ooh La Chords

About the artist behind She Moves In Her Own Way Tab:

The Kooks (pronounced /kuːks/) are an indie rock band based in the United Kingdom. The band was formed in Brighton, England, in 2004, and currently consists of guitarist and lead vocalist Luke Pritchard, lead guitarist and back up vocalist Hugh Harris, drummer Paul Garred and temporary bassist Dan Logan, who replaced Max Rafferty in 2008. They have released two studio albums, both achieved commendable success on the UK Albums Chart, with their 2006 debut album Inside In/Inside Out peaking at #2, and their 2008 follow up Konk peaking at #1.

Indexed at Wikipedia.

Show us your talent, perform She Moves In Her Own Way Tab!

Here you can post a video or audio performance. Tell me more ...
Where can we find your performance? Tell me more ...
Your comment:
Please, log in to post your performance.