Artists by letter: A B C D E F G H I J K L M N O P Q R S T U V W X Y Z 0-9

 
Decode Acoustic Tab
 																																													Decode Acoustic Tab									by Paramore tabs |											tabbed by TabmastaEricV | 									comments (0) 																																													1																							2																							3																							4																							5																																						   								 																	 									print																																							 									send																																							 									report																																																																																																													More versions:																																																																																																																																			Ver 1																																																																																																																																																																																																																																																																																																																																																																																																																																																																																														Recommended tabs																																																											If you like Decode Acoustic Tab by Paramore you might also like these songs:																									Decode Tabby Paramore																									Love Story Chordsby Taylor Swift																									The Climb Chordsby Miley Cyrus																																																																																																																															Decode Acoustic Tabat 911Tabs.com																																																						 																																																																																																																																																																																												 																																																																																																																												+ to speed up (numpad)															- to slow down (numpad)															Esc to stop																												Help																																																																																																																																																											Decode Acoustic tab by Paramore, www.Ultimate-Guitar.Com																																													Listen to Decode Acoustic																																														Add to favourites																																																																			Tuning (this tab): D Tuning [ D G C F A D ]																																																																				Difficulty: intermediate																																																																																			tf_artist = "Paramore";											tf_song = "Decode Acoustic";																																																												This is the 97x acoustic version of Decode the video is on youtube
if you want to see it and this is my first tab so if its bad
that's why.

(.)palm mute
(b)Bend
(s)Slide
(v)vibrato i think that's what its called

Intro

Josh
e------------------8---------------------8------------------------12------|
b---10---10---10--------10----10----10---------10----10----10-------------|
g------9----9----9---9------9----9-----9----9-----12----12-----12-----12--|
d-------------------------------------------------------------------------|
a-------------------------------------------------------------------------|
D-------------------------------------------------------------------------|

e-----------------------10--------|
b--10----10----10----10-----------|
g-----12----12----12--------------|
d---------------------------------|
a---------------------------------|
D---------------------------------|

Taylor
e------------------------------------------------------------------|
b------------------------------------------------------------------|
g------------------------------------------------------------------|
d------------------------------------------------------------------|
a--3-3-3-3-3-3-3-3-3-3-3-3-3-3-3-3-3-3-3-3-3-3-3-3-3-3-3-3-3-3-3-3-|
D------------------------------------------------------------------|
   . . . . . . . . . . . . . . . . . . . . . . . . . . . . . . . .

e-------------------------------------------------------------------|
b-------------------------------------------------------------------|
g-------------------------------------------------------------------|
d-------------------------------------------------------------------|
a--3-3-3-3-3-3-3-3-3-3-3-3-3-3-3-3-3-3-3-3-3-3-3-3-3-3-3-3-3-3-3-3--|
D--3-3-3-3-3-3-3-3-3-3-3-3-3-3-3-3-3-3-3-3-3-3-3-3-3-3-3-3-3-3-3-3--|
   . . . . . . . . . . . . . . . . . . . . . . . . . . . . . . . .

Verse

Josh
e------------------8---------------------8------------------------12------|
b---10---10---10--------10----10----10---------10----10----10-------------|
g------9----9----9---9------9----9-----9----9-----12----12-----12-----12--|
d-------------------------------------------------------------------------|
a-------------------------------------------------------------------------|
D-------------------------------------------------------------------------|

e-----------------------10--------|
b--10----10----10----10-----------|
g-----12----12----12--------------| X2
d---------------------------------|
a---------------------------------|
D---------------------------------|

Taylor
e-------------------------------------------------------------------|
b-------------------------------------------------------------------|
g-------------------------------------------------------------------|
d-------------------------------------------------------------------|
a--3-3-3-3-3-3-3-3-3-3-3-3-3-3-3-3-0-0-0-0-0-0-0-0-0-0-0-0-0-0-0-0--|
D--3-3-3-3-3-3-3-3-3-3-3-3-3-3-3-3-0-0-0-0-0-0-0-0-0-0-0-0-0-0-0-0--|
         . . . . . . . . . . . . . . . . . . . . . . . . . . . . .

e-------------------------------------------------------------------|
b-------------------------------------------------------------------|
g-------------------------------------------------------------------|
d-------------------------------------------------------------------| X2
a--7-7-7-7-7-7-7-7-7-7-7-7-7-7-7-7-2-2-2-2-2-2-2-2-2-2-2-2-2-2-2-2--|
D--7-7-7-7-7-7-7-7-7-7-7-7-7-7-7-7-2-2-2-2-2-2-2-2-2-2-2-2-2-2-2-2--|
   . . . . . . . . . . . . . . . . . . . . . . . . . . . . . . . .

Josh
e------------------8---------------------8------------------------12------|
b---10---10---10--------10----10----10---------10----10----10-------------|
g------9----9----9---9------9----9-----9----9-----12----12-----12-----12--|
d-------------------------------------------------------------------------|
a-------------------------------------------------------------------------|
D-------------------------------------------------------------------------|

e--10----10----10----10--------------|
b------------------------------------|
g-----12----12----12----12-----------|
d------------------------------------|
a------------------------------------|
D------------------------------------|

Taylor
e-------------------------------------------------------------------|
b-------------------------------------------------------------------|
g-------------------------------------------------------------------|
d--3-3-3-3-3-3-3-3-3-3-3-3-3-3-3-3-0-0-0-0-0-0-0-0-0-0-0-0-0-0-0-0--|
a--3-3-3-3-3-3-3-3-3-3-3-3-3-3-3-3-0-0-0-0-0-0-0-0-0-0-0-0-0-0-0-0--|
D--3-3-3-3-3-3-3-3-3-3-3-3-3-3-3-3-0-0-0-0-0-0-0-0-0-0-0-0-0-0-0-0--|

e-------------------------------------------------------------------|
b-------------------------------------------------------------------|
g-------------------------------------------------------------------|
d--10-10-10-10-10-10-10-10-10-10-10-10-10-10-10-10------------------|
a--7--7--7--7--7--7--7--7--7--7--7--7--7--7--7--7-------------------|
D--7--7--7--7--7--7--7--7--7--7--7--7--7--7--7--7-------------------|
   
e-------------------------------------|
b-------------------------------------|
g-------------------------------------|
d-5-5-5-5-5-5-5-5-5-5-5-5-5-5-5-5-----|
a-5-5-5-5-5-5-5-5-5-5-5-5-5-5-5-5-----|
D-5-5-5-5-5-5-5-5-5-5-5-5-5-5-5-5-----|
  

Chorus

Josh
e------------------8-8------------------8-8------------------------12-------|
b---10---10---10--------10----10----10---------10----10----10---------------|
g------9----9----9---------9----9-----9-----9-----12----12-----12-----12----|
d---------------------------------------------------------------------------|
a---------------------------------------------------------------------------|
D---------------------------------------------------------------------------|

e--10----10----10----10--------------|
b------------------------------------|
g-----12----12----12----12-----------|  X2
d------------------------------------|
a------------------------------------|

Taylor
e-------------------------------------------------------------------|
b-------------------------------------------------------------------|
g-------------------------------------------------------------------|
d--3-3-3-3-3-3-3-3-3-3-3-3-3-3-3-3-0-0-0-0-0-0-0-0-0-0-0-0-0-0-0-0--|
a--3-3-3-3-3-3-3-3-3-3-3-3-3-3-3-3-0-0-0-0-0-0-0-0-0-0-0-0-0-0-0-0--|
D--3-3-3-3-3-3-3-3-3-3-3-3-3-3-3-3-0-0-0-0-0-0-0-0-0-0-0-0-0-0-0-0--|

e--------------------------------------------------------------------|
b--------------------------------------------------------------------|
g--------------------------------------------------------------------|
d--10-10-10-10-10-10-10-10-9--9--9--9--9--9--9--9--------------------|
a--7--7--7--7--7--7--7--7--7--7--7--7--7--7--7--7--------------------|
D--7--7--7--7--7--7--7--7--7--7--7--7--7--7--7--7--------------------|

e-------------------------------------|
b-------------------------------------|
g-------------------------------------|
d-5-5-5-5-5-5-5-5-5-5-5-5-5-5-5-5-----| X2
a-5-5-5-5-5-5-5-5-5-5-5-5-5-5-5-5-----|
D-5-5-5-5-5-5-5-5-5-5-5-5-5-5-5-5-----|


Josh
e----------------------------------------|
b--10---10---10---10----8---8---8---8----|
g-----9----9----9----9----7---7---7---7--|
d----------------------------------------|
a----------------------------------------|
D----------------------------------------|

Taylor
e-----------------------------------------------------------------|
b-----------------------------------------------------------------|
g-----------------------------------------------------------------|
d-----------------------------------------------------------------|
a-7-7-7-7-7-7-7-7-7-7-7-7-7-7-7-7-5-5-5-5-5-5-5-5-5-5-5-5-5-5-5-5-|
D-7-7-7-7-7-7-7-7-7-7-7-7-7-7-7-7-5-5-5-5-5-5-5-5-5-5-5-5-5-5-5-5-|
  . . . . . . . . . . . . . . . . . . . . . . . . . . . . . . . .

Verse

Josh
e------------------8---------------------8------------------------12------|
b---10---10---10--------10----10----10---------10----10----10-------------|
g------9----9----9---9------9----9-----9----9-----12----12-----12-----12--|
d-------------------------------------------------------------------------|
a-------------------------------------------------------------------------|
D-------------------------------------------------------------------------|

e-----------------------10--------|
b--10----10----10----10-----------|
g-----12----12----12--------------| X2
d---------------------------------|
a---------------------------------|
D---------------------------------|

Taylor
e-------------------------------------------------------------------|
b-------------------------------------------------------------------|
g-------------------------------------------------------------------|
d-------------------------------------------------------------------|
a--3-3-3-3-3-3-3-3-3-3-3-3-3-3-3-3-0-0-0-0-0-0-0-0-0-0-0-0-0-0-0-0--|
D--3-3-3-3-3-3-3-3-3-3-3-3-3-3-3-3-0-0-0-0-0-0-0-0-0-0-0-0-0-0-0-0--|
   . . . . . . . . . . . . . . . . . . . . . . . . . . . . . . . .

e-------------------------------------------------------------------|
b-------------------------------------------------------------------|
g-------------------------------------------------------------------|
d-------------------------------------------------------------------| X2
a--7-7-7-7-7-7-7-7-7-7-7-7-7-7-7-7-2-2-2-2-2-2-2-2-2-2-2-2-2-2-2-2--|
D--7-7-7-7-7-7-7-7-7-7-7-7-7-7-7-7-2-2-2-2-2-2-2-2-2-2-2-2-2-2-2-2--|
   . . . . . . . . . . . . . . . . . . . . . . . . . . . . . . . .

Josh
e------------------8---------------------8------------------------12------|
b---10---10---10--------10----10----10---------10----10----10-------------|
g------9----9----9---9------9----9-----9----9-----12----12-----12-----12--|
d-------------------------------------------------------------------------|
a-------------------------------------------------------------------------|
D-------------------------------------------------------------------------|

e--10----10----10----10--------------|
b------------------------------------|
g-----12----12----12----12-----------|
d------------------------------------|
a------------------------------------|
D------------------------------------|

Taylor
e-------------------------------------------------------------------|
b-------------------------------------------------------------------|
g-------------------------------------------------------------------|
d--3-3-3-3-3-3-3-3-3-3-3-3-3-3-3-3-0-0-0-0-0-0-0-0-0-0-0-0-0-0-0-0--|
a--3-3-3-3-3-3-3-3-3-3-3-3-3-3-3-3-0-0-0-0-0-0-0-0-0-0-0-0-0-0-0-0--|
D--3-3-3-3-3-3-3-3-3-3-3-3-3-3-3-3-0-0-0-0-0-0-0-0-0-0-0-0-0-0-0-0--|
   
e-------------------------------------------------------------------|
b-------------------------------------------------------------------|
g-------------------------------------------------------------------|
d--10-10-10-10-10-10-10-10-10-10-10-10-10-10-10-10------------------|
a--7--7--7--7--7--7--7--7--7--7--7--7--7--7--7--7-------------------|
D--7--7--7--7--7--7--7--7--7--7--7--7--7--7--7--7-------------------|
  
e-------------------------------------|
b-------------------------------------|
g-------------------------------------|
d-5-5-5-5-5-5-5-5-5-5-5-5-5-5-5-5-----|
a-5-5-5-5-5-5-5-5-5-5-5-5-5-5-5-5-----|
D-5-5-5-5-5-5-5-5-5-5-5-5-5-5-5-5-----|
  

Chorus

Josh
e------------------8-8------------------8-8------------------------12-------|
b---10---10---10--------10----10----10---------10----10----10---------------|
g------9----9----9---------9----9-----9-----9-----12----12-----12-----12----|
d---------------------------------------------------------------------------|
a---------------------------------------------------------------------------|
D---------------------------------------------------------------------------|

e--10----10----10----10--------------|
b------------------------------------|
g-----12----12----12----12-----------|  X2
d------------------------------------|
a------------------------------------|

Taylor
e-------------------------------------------------------------------|
b-------------------------------------------------------------------|
g-------------------------------------------------------------------|
d--3-3-3-3-3-3-3-3-3-3-3-3-3-3-3-3-0-0-0-0-0-0-0-0-0-0-0-0-0-0-0-0--|
a--3-3-3-3-3-3-3-3-3-3-3-3-3-3-3-3-0-0-0-0-0-0-0-0-0-0-0-0-0-0-0-0--|
D--3-3-3-3-3-3-3-3-3-3-3-3-3-3-3-3-0-0-0-0-0-0-0-0-0-0-0-0-0-0-0-0--|

e--------------------------------------------------------------------|
b--------------------------------------------------------------------|
g--------------------------------------------------------------------|
d--10-10-10-10-10-10-10-10-9--9--9--9--9--9--9--9--------------------|
a--7--7--7--7--7--7--7--7--7--7--7--7--7--7--7--7--------------------|
D--7--7--7--7--7--7--7--7--7--7--7--7--7--7--7--7--------------------|

e-------------------------------------|
b-------------------------------------|
g-------------------------------------|
d-5-5-5-5-5-5-5-5-5-5-5-5-5-5-5-5-----| X2
a-5-5-5-5-5-5-5-5-5-5-5-5-5-5-5-5-----|
D-5-5-5-5-5-5-5-5-5-5-5-5-5-5-5-5-----|

Solo

Josh
e-----------------12------------------12--------------------------|
b---12b-10-12b-10----10-12b-10-12b-10----10--12b-10-10-10s8-8-8-8-|
g-----------------------------------------------------------------|
d-----------------------------------------------------------------|
a-----------------------------------------------------------------|
D-----------------------------------------------------------------|

e-------------------------12-------------------10-----------------|
b--0-1-1s3v-12b-10-12b-10----10--12b-10-12b-10----10--12-12-13-13-|
g-----------------------------------------------------------------|
d-----------------------------------------------------------------|
a-----------------------------------------------------------------|
D-----------------------------------------------------------------|

e----------15-17--------------------------------|
b--131313--------15-13-12-----------------------|
g-----------------------------------------------|
d-----------------------------------------------|
a-----------------------------------------------|
D-----------------------------------------------|

Taylor
e-------------------------------------------------------------------|
b-------------------------------------------------------------------|
g-------------------------------------------------------------------|
d--3-3-3-3-3-3-3-3-3-3-3-3-3-3-3-3-0-0-0-0-0-0-0-0-0-0-0-0-0-0-0-0--|
a--3-3-3-3-3-3-3-3-3-3-3-3-3-3-3-3-0-0-0-0-0-0-0-0-0-0-0-0-0-0-0-0--|
D--3-3-3-3-3-3-3-3-3-3-3-3-3-3-3-3-0-0-0-0-0-0-0-0-0-0-0-0-0-0-0-0--|

e--------------------------------------------------------------------|
b--------------------------------------------------------------------|
g--------------------------------------------------------------------|
d--10-10-10-10-10-10-10-10-9--9--9--9--9--9--9--9--------------------|
a--7--7--7--7--7--7--7--7--7--7--7--7--7--7--7--7--------------------|
D--7--7--7--7--7--7--7--7--7--7--7--7--7--7--7--7--------------------|

e-------------------------------------|
b-------------------------------------|
g-------------------------------------|
d-5-5-5-5-5-5-5-5-5-5-5-5-5-5-5-5-----| X2
a-5-5-5-5-5-5-5-5-5-5-5-5-5-5-5-5-----|
D-5-5-5-5-5-5-5-5-5-5-5-5-5-5-5-5-----|

Interlude

Josh
e----8-----8----12----10---------|
b----9-----9----10----10---------|
g----10---10----12----12---------|
d--------------------------------| X2
a--------------------------------|
D--------------------------------|

Taylor
e-------------------------------------------------------------------|
b-------------------------------------------------------------------|
g-------------------------------------------------------------------|
d-------------------------------------------------------------------|
a--3-3-3-3-3-3-3-3-3-3-3-3-3-3-3-3-0-0-0-0-0-0-0-0-0-0-0-0-0-0-0-0--|
D--3-3-3-3-3-3-3-3-3-3-3-3-3-3-3-3-0-0-0-0-0-0-0-0-0-0-0-0-0-0-0-0--|
   . . . . . . . . . . . . . . . . . . . . . . . . . . . . . . . .

e-------------------------------------------------------------------|
b-------------------------------------------------------------------|
g-------------------------------------------------------------------|
d-------------------------------------------------------------------| X2
a--7-7-7-7-7-7-7-7-7-7-7-7-7-7-7-7-5-5-5-5-5-5-5-5-5-5-5-5-5-5-5-5--|
D--7-7-7-7-7-7-7-7-7-7-7-7-7-7-7-7-5-5-5-5-5-5-5-5-5-5-5-5-5-5-5-5--|
   . . . . . . . . . . . . . . . . . . . . . . . . . . . . . . . .

Chorus

Josh
e------------------8-8------------------8-8------------------------12-------|
b---10---10---10--------10----10----10---------10----10----10---------------|
g------9----9----9---------9----9-----9-----9-----12----12-----12-----12----|
d---------------------------------------------------------------------------|
a---------------------------------------------------------------------------|
D---------------------------------------------------------------------------|

e--10----10----10----10--------------|
b------------------------------------|
g-----12----12----12----12-----------|  X3
d------------------------------------|
a------------------------------------|

Taylor
e-------------------------------------------------------------------|
b-------------------------------------------------------------------|
g-------------------------------------------------------------------|
d--3-3-3-3-3-3-3-3-3-3-3-3-3-3-3-3-0-0-0-0-0-0-0-0-0-0-0-0-0-0-0-0--|
a--3-3-3-3-3-3-3-3-3-3-3-3-3-3-3-3-0-0-0-0-0-0-0-0-0-0-0-0-0-0-0-0--|
D--3-3-3-3-3-3-3-3-3-3-3-3-3-3-3-3-0-0-0-0-0-0-0-0-0-0-0-0-0-0-0-0--|

e--------------------------------------------------------------------|
b--------------------------------------------------------------------|
g--------------------------------------------------------------------|
d--10-10-10-10-10-10-10-10-9--9--9--9--9--9--9--9--------------------|
a--7--7--7--7--7--7--7--7--7--7--7--7--7--7--7--7--------------------|
D--7--7--7--7--7--7--7--7--7--7--7--7--7--7--7--7--------------------|

e-------------------------------------|
b-------------------------------------|
g-------------------------------------|
d-5-5-5-5-5-5-5-5-5-5-5-5-5-5-5-5-----| X3
a-5-5-5-5-5-5-5-5-5-5-5-5-5-5-5-5-----|
D-5-5-5-5-5-5-5-5-5-5-5-5-5-5-5-5-----|

Outro

Josh
e----------------------------------------------------------------|
b----------------------------------------------------------------|
g---------------------------2------------------------------------|
d---------------------------x------------------------------------| x2
a--3-3-3-3-5-5-5-5-0-0-0-0--0--2-3-3-3-3-7-7-7-7-2-2-2-2-2-2-2-2-|
D--3-3-3-3-5-5-5-5-0-0-0-0-----2-3-3-3-3-7-7-7-7-2-2-2-2-2-2-2-2-|

Taylor
e----------------------------------------------------------------------|
b----------------------------------------------------------------------|
g--5-5-5-5-4-4-4-4-2-2-2-2s9-2-5-5-5-5-7-7-7-7-12-12-12-12-12-12-12-12-|
d--x-x-x-x-x-x-x-x-x-x-x-x-x-x-x-x-x-x-x-x-x-x--x--x--x--x--x--x--x--x-| x2
a--3-3-3-3-2-2-2-2-0-0-0-0s7-0-3-3-3-3-5-5-5-5-10-10-10-10-10-10-10-10-|
D----------------------------------------------------------------------|

Josh
e------------------------------------|
b------------------------------------|
g------------------------------------|
d--3---3---0-------------------------|
a--3---3---0-------------------------|
D--3---3---0-------------------------|

Taylor
e------------------------------------|
b------------------------------------|
g--5---5---4-------------------------|
d--x---x---x-------------------------|
a--3---3---2-------------------------|
D------------------------------------|																																																																													tf_artist = "Paramore";											tf_song = "Decode Acoustic";																															         																																																																																																		

 
 
Paramore - Decode Acoustic Tab :: indexed at Ultimate Guitar.
Decode Acoustic tabs @ 911Tabs

About the artist behind Decode Acoustic Tab:

Paramore (IPA: /'pærəmɔər/) is an American rock band that formed in Franklin, Tennessee in 2004 consisting of Hayley Williams (lead vocals/keyboard), Josh Farro (lead guitar/backing vocals), Jeremy Davis (bass guitar), and Zac Farro (drums). The group released their debut album All We Know Is Falling in 2005, and their second album Riot! in 2007, which was certified gold in the US and the UK.

Indexed at Wikipedia.

Show us your talent, perform Decode Acoustic Tab!

Here you can post a video or audio performance. Tell me more ...
Where can we find your performance? Tell me more ...
Your comment:
Please, log in to post your performance.