Artists by letter: A B C D E F G H I J K L M N O P Q R S T U V W X Y Z 0-9

 
The Outsiders Tab
 																																													The Outsiders Tab									by Needtobreathe tabs |											tabbed by cblank423 | 									comments (0) 																																													1																							2																							3																							4																							5																																															  2 votes 								 																	 									print																																							 									send																																							 									report																																																																																																																																																																				The Outsiders Tabat 911Tabs.com																																																						 																																																																																																																																																																																												 																																																																																																																												+ to speed up (numpad)															- to slow down (numpad)															Esc to stop																												Help																																																																																																																																																											The Outsiders tab by Needtobreathe, www.Ultimate-Guitar.Com																																													Listen to The Outsiders																																														Add to favourites																																																																				Difficulty: intermediate																																																																																			tf_artist = "Needtobreathe";											tf_song = "The Outsiders";																																																												Bm            G         D          Bm           G           D
Short falls and little sins           Close calls where no one wins
Bm            G            D        A     D
Stand tall but running thin          I'm wearing thin
F#m         A
Oh why are we keeping score

D                                     Bm   A           G
Cause if you're not laughing who is laughing now
D                                                      Bm    A          G
I've been wondering if this starts sinking would we stand our ground
Bm                                           F#m  A
After everything we've learned We've finally come to terms

We are the outsiders

Riff
  G/F# G   G/F# G  G/F# G    C G/B Dsus/A
e|---------------------------3-3-2--0-0--0-0--0-0-0-0-0--|
B|---2h3-3-3-2h3-3-3-2h3-3-3-3-3-3-3----3----3----3-3-3--|
G|---2-------2-------2-------2-2-2-2----2----2----2-2-2--|Banjo for Acoustic
D|---0-------0-------0-------0-0-0-0----0----0----0-0-0--|
A|-------------------------------------------------------|
E|-------------------------------------------------------|

Electric Guitar  capo 7
  G/F# G   G/F# G  G/F# G    C G/B Dsus/A
e|--3--3--------------------3--3-----2--|
B|--3--3--------------------3--3-----3--|
G|--0--0--------------------0--0-----0--|
D|--0--0--------------------x--0-----0--|
A|--x--x--------------------3--2-----0--|
E|--2--3--------------------x--x-----x--|

I'm not leaving without a fight
I've got my holsters around my sides
Just cause I'm wrong that don't make you right
It's not right
Oh, what are we fighting for

Cause if you're not laughing
Who is laughing now
I've been wondering if this starts sinking
Would we stand our ground
After everything we've learned
We've finally come to terms

Outro

On the outside your free to roam
On the outside we found a home
On the outside there's more to see
On the outside we choose to be


Acoustic
e|------------------------------------------------------------|
B|---/7-7---7----/7-7---8/7----/5-5-----5----/5-5-------------|
G|---/7--7---7---/7--7-----7---/6--6-----6---/6--6--6-7-7/9-7-|
D|----0----0------0----0--------0----0--------0---------------|
A|------------------------------0-------------0---------------|
E|------------------------------------------------------------|

Electric capo 7
e|---/3-3----3---/3-3----3----/2-2-----2----/2-2----2-3-5-3---|
B|---/3--3----3--/3--3----1---/3--3-----3---/3--3-------------|
G|----0----0------0----0-------0-----0-------0----------------|
D|-----------------------------0-------------0----------------|
A|------------------------------------------------------------|
E|------------------------------------------------------------|																																																																													tf_artist = "Needtobreathe";											tf_song = "The Outsiders";																															         																																																																																																		

 
 
Needtobreathe - The Outsiders Tab :: indexed at Ultimate Guitar.
The Outsiders tabs @ 911Tabs

About the artist behind The Outsiders Tab:

Late 2006-Early 2007[1][2]

Genre

Christian rock, CCM

Length

52:35

Label

Atlantic/Word

Producer

Rick Beato, Ed Roland[1]

Professional reviews

All Music Guide link
Jesus Freak Hideout link
Needtobreathe chronology

Daylight
(2006)

The Heat
(2007)

The Heat is the second studio album by the Christian rock band Needtobreathe, released on August 28, 2007 under Atlantic/Word Records.[3] The album reached #164 on Billboard's Top 200 and #2 on the Top Heatseekers charts.[4] The first single from the album, "Signature of Divine (Yahweh)", reached #1 on CHR R&R charts[citation needed], and was the #14 most played song in 2007 on Christian Hit Radio[5]. The Heat was GMA Dove Award-nominated for "Rock/Contemporary Album of the Year", as well as "Rock/Contemporary Song of the Year" for the song "Signature of Divine (Yahweh)".[6]

Indexed at Wikipedia.

Show us your talent, perform The Outsiders Tab!

Here you can post a video or audio performance. Tell me more ...
Where can we find your performance? Tell me more ...
Your comment:
Please, log in to post your performance.