Artists by letter: A B C D E F G H I J K L M N O P Q R S T U V W X Y Z 0-9

 
Mad Tab
 																																													Mad Tab									by Ne-yo tabs |											tabbed by Unregistered | 									comments (0) 																																													1																							2																							3																							4																							5																																						   								 																	 									print																																							 									send																																							 									report																																																																																																													More versions:																																																																																																																																			Ver 1																																																																																																																																																																																																																																																																																																																																																																																																																																																																																														Recommended tabs																																																											If you like Mad Tab by Ne-yo you might also like these songs:																									Love Story Chordsby Taylor Swift																									The Climb Chordsby Miley Cyrus																									Im Yours Tabby Jason Mraz																																																																																																																																Mad Lyricsby Ne-yo Lyrics																						Mad Tabat 911Tabs.com																																																						 																																																																																																																																																																																												 																																																																																																																												+ to speed up (numpad)															- to slow down (numpad)															Esc to stop																												Help																																																																																																																																																											Mad tab by Ne-yo, www.Ultimate-Guitar.Com																																													Listen to Mad																																														Add to favourites																																																																				Difficulty: intermediate																																																																																			tf_artist = "Ne-yo";											tf_song = "Mad";																																																												E|---------------8----7---|-7---------7------------|---------------------------------|
B|---------------8----8---|-8-------------10--8----|-------------5--6-----6-5--------|
G|-9--------9---------9---|------7-----------------|---------7---7--7---7--------7---|
D|------10----------------|------------------------|-----7---------------------------|
A|------------------------|------------------------|-5---------------------------5---|
E|-8-------------8--------|-7----7----7-------7----|--------------------7------------|


E|-----------------------------------|-----------------------------|-----------------------------|
B|---------1---0--1--0---0---1---3---|-3--------0--1--0---1----0---|-0--------0--1--0----1---1---|
G|-----2-----------------------------|-----------------------------|-----------------------------|
D|-3-------3---3-----------------3---|-----------------------------|-----------------------------|
A|-----------------------------------|-3----3---3--------------3---|-2----2---2--------------2---|
E|-----------------------------------|-----------------------------|-----------------------------|


E|----------0-------------|-----------------0------------|--------------------------------|
B|-1-------------1--------|---------1-----------1--------|-1----1---0--1--0---0-------1---|
G|------0------------0----|-----2-------2-----------2----|-0----0-----------------0-------|
D|------------------------|-3-----------------------3----|--------------------------------|
A|-0-----------------0----|------------------------------|-3----3---3-----------------3---|
E|------------------------|------------------------------|--------------------------------|


E|----------------------0---1---|--------------0------------|-----------------0------------|
B|-1-------1----1---3-----------|-3---5---1--------1----3---|---------1-----------1--------|
G|-----0------------------------|---------------------------|-----2-------2-----------2----|
D|------------------------------|-0---------------------0---|-3-----------------------3----|
A|-2-------2----2-----------2---|---------------------------|------------------------------|
E|------------------------------|---------------------------|------------------------------|


E|---------------------------|------------------------------|------------------------------|
B|---------1-------1----3----|-0---1---0---1--------3---1---|-0---1---0---1--------3---1---|
G|-----2-------2-------------|-2-----------2----2-----------|-0-----------0----2-----------|
D|-3-----------3---3----3----|------------------------------|------------------------------|
A|---------------------------|-0-------0---0------------0---|------------------------------|
E|---------------------------|------------------------------|-3-------3---3------------3---|


E|-----------------------|------------------------------|------------------------------|
B|-0---1---0---1-----1---|-0---1---0---1--------3---1---|-0---1---0---1--------3---1---|
G|-2-----------2---------|-0-----------0----2-----------|-2-----------2----2-----------|
D|-----------------------|------------------------------|------------------------------|
A|-----------------------|------------------------------|-0-------0---0------------0---|
E|-1-------1---1-----1---|-3-------3---3------------3---|------------------------------|


E|-------------------------0---1---|--------------0------------|-----------------0----3----|
B|-0---1-------0---1---3-----------|-3---5---1--------1--------|-----0---1---3-------------|
G|-0-------2-----------------------|-----------------------0---|-2-------------------------|
D|---------------------------------|-0---------------------0---|---------------------------|
A|---------------------------------|---------------------------|---------------------------|
E|-3-----------3---3-----------3---|---------------------------|-1-----------1---1----3----|


E|-7--------5----------------|-3--------1----------------|---------------------------|
B|-5--------5----------------|-1--------1----1---0---1---|-3---5----3--------3-------|
G|---------------5---4---5---|---------------------------|-2---4----2--------2---0---|
D|---------------------------|---------------------------|-0--------0----0-------0---|
A|-0----0----------------0---|---------------------------|---------------------------|
E|---------------------------|-1----1----------------1---|---------------------------|


E|-----------------------0---|-0-----------------------0---1---|-3-----------3-----------3-------|
B|-3---5----3--------3-------|-----3---1---0---1---3-----------|-----1-----------1-----------1---|
G|-2---4----2--------2-------|---------------------------------|---------0-----------0-----------|
D|-0--------0----0-------0---|---------------------------------|---------------------------------|
A|---------------------------|---------------------------------|-3-------3---3---------------3---|
E|---------------------------|-3-----------3---3-----------3---|---------------------------------|


E|-----3-----------3---1---0-------|-------------0--1--0------------|-----------------0----1----|
B|---------3-------------------3---|---------3---3-----3--------3---|---------1-------1----1----|
G|-0-----------0-------------------|-----2------------------2-------|-----2-------2-------------|
D|---------------------------------|-0--------------------------0---|-3--------------------3----|
A|---------------------------------|--------------------------------|---------------------------|
E|-3-----------3---3-----------3---|--------------------------------|---------------------------|


E|---------------------------------|----------0----3--------|---------------------------------|
B|---------1-------1---0-------0---|-1--------1----1----1---|-1-------1-------1---0-------0---|
G|-----2-------2-----------2-------|-0------------------0---|-0---0-------0-----------2-------|
D|-3-----------3---3-----------3---|------------------------|---------------------------------|
A|---------------------------------|-3----3-------------3---|-2-----------2---2-----------2---|
E|---------------------------------|------------------------|---------------------------------|


E|----------0----3--------|---------------------------------|---------0-----------------|
B|-1--------1----1----3---|-3-------1-------1---0-------0---|-0-----------3----1----1---|
G|-0------------------0---|-0---0-------0-----------2-------|-2---2---------------------|
D|------------------------|---------------------------------|---------------------------|
A|-0----0-------------0---|---------------------------------|---------------------------|
E|------------------------|-1-----------1---1-----------1---|-1---------------------1---|


E|---------------8----7---|-----------7------------|---------------------------------|
B|---------------8----8---|---------------10--8----|-------------5--6---6-6-5--------|
G|-9--------9-------------|------7-----------------|---------7---7--7------------7---|
D|------10----------------|------------------------|-----7---------------------------|
A|------------------------|------------------------|-5---------------------------5---|
E|-8-------------8--------|-7----7----7-------7----|---------------------------------|


E|-----------------0------------|--------|
B|---------1-----------1--------|-3------|
G|-----2-------2-----------2----|--------|
D|-3-----------------------3----|-3------|
A|------------------------------|--------|
E|------------------------------|--------|
																																															Mad Lyrics																																																	tf_artist = "Ne-yo";											tf_song = "Mad";																															         																																																																																																		

 
 
Ne-yo - Mad Tab :: indexed at Ultimate Guitar.
Mad tabs @ 911Tabs

Quick tip, so you can enjoy Mad Tab even more:

YourChords.com Guitar Chords and Tabs Archive is currently indexing over 240'000 songs from 21'000+ different artists. And new chords just keep on coming in, so you will surely never run out of them.

Show us your talent, perform Mad Tab!

Here you can post a video or audio performance. Tell me more ...
Where can we find your performance? Tell me more ...
Your comment:
Please, log in to post your performance.