Artists by letter: A B C D E F G H I J K L M N O P Q R S T U V W X Y Z 0-9

 
The Passing Tab
 																																													The Passing Tab									by Lamb Of God tabs |											tabbed by Chaz-6(sic)6 | 									comments (0) 																																													1																							2																							3																							4																							5																																															  2 votes 								 																	 									print																																							 									send																																							 									report																																																																																																													More versions:																																																																																																																																			Ver 1																																																																																																																																																																																																																																																																																																																																																																																																																																																																																														Recommended tabs																																																											If you like The Passing Tab by Lamb Of God you might also like these songs:																									Stairway To Heaven Tabby Led Zeppelin																									In Your Words Guitar Proby Lamb Of God																									Grace Guitar Proby Lamb Of God																																																																																																																																The Passing Lyricsby Lamb Of God Lyrics																						The Passing Tabat 911Tabs.com																																																						 																																																																																																																																																																																												 																																																																																																																												+ to speed up (numpad)															- to slow down (numpad)															Esc to stop																												Help																																																																																																																																																											The Passing tab by Lamb Of God, www.Ultimate-Guitar.Com																																													Listen to The Passing																																														Add to favourites																																																																			Tuning (this tab): Drop D [ D A D G B E ]																																																																				Difficulty: novice																																																																																			tf_artist = "Lamb Of God";											tf_song = "The Passing";																																																												Artist: Lamb Of God
Song:   The Passing
Album:  Wrath
Tuning: Drop D (D,A,D,G,B,E)

Here's The Awesome Intro To The Album WRATH.
I'm Pretty Sure This Is Almost 100%. Maybe A Couple Things Off,
But Should Be Close.
Took Me Forever To Get This Considering There's Alot Of
Guitars Going On At Once.

If You Hear The Studio Experience CD That Came With The Deluxe Version,
The Rhythm Guitar Is Almost Exactly The Same As The Bass Parts.

Intro 1 (Acoustic)
E|------------------------------------------------------------------|
B|------------------------------------------------------------------|
G|----------------------4-------0-----------------------------------|
D|-----2--4-5-4h5p4-2-----4-------4----------2--4-5-4h5p4----4---5--| [2x]
A|---2----------------------2-------2------0-------------------5----|
D|-2------------------2-------2-------2--0-----------------0--------|

Intro 2
|------------------0----------------|
|---------0----------0-----0--------|
|-------2---2----------2-----2------|
|-----0-------0----------0-----0----|
|---3-----------3----------------3--|
|-3---------------------------------|

|---------------------------------|
|---------------------------------|
|---5/7---7/9---9/10--10/9---9/7--|
|---x-x---x-x---x-x----x-x---x-x--|
|---3/5---5/7---7/8----8/7---7/5--|
|-0-----0-----0------0-----0------|

|------------------0----------------|
|---------0----------0-----0--------|
|-------2---2----------2-----2------|
|-----0-------0----------0-----0----|
|---3-----------3----------------3--|
|-3---------------------------------|

Build-Up (Distortion)
|-----------------------------------------|
|-----------------------------------------|
|-----------------------------------------|
|-----------------------------------------|
|-7-8-7-8-7-8-7-8-7-8-7-8-7-8-------------|
|-7-8-7-8-7-8-7-8-7-8-7-8-7-8--0-2-4-5-4--|
 pm.  . . . . . . . . . . . .      . . .
|
|      |---Natural Harmonic----------------|
|------12--------(12)------------(12)------|
|------------------------------------------|
|------------------------------------------|  slowly turn up volume
|------------------------------------------|   on your guitar
|------------------------------------------|
|------------------------------------------|

Verse Section
|-------------------------------------------------------------------------|
|-------------------------------------------------------------------------|
|-------------------------------------------------------------------------|
|-------------------------------------------------------------------------|
|-------------------------------------2-------0-------2-----7----5--4--0--|
|-2--0--5-4-0-2--4--5--4--2--0--5-4-0-2-------0-------2-----7----5--4--0--|
| .              .  .  .  .
|
|-------------------------------------------------------------------------|
|---------------12/17--------------12/17--15/19--(19b)17------------------|
|-16-14-------------------16-14-----------------------------18---16-14-12-|
|-------------------------------------------------------------------------|
|-------------------------------------------------------------------------|
|-------------------------------------------------------------------------|
|
|-------------------------------------------------------------------------|
|-----------------------------------12-10-8-7-5-12-10-8-7-8-12-10-8-7-5---|
|------------------------------------x--x-x-x-x--x--x-x-x-x--x--x-x-x-x---|
|------------------------------------9--7-5-4-2--9--7-5-4-5--9--7-5-4-2---|
|-------------------------------------------------------------------------|
|-------------------------------------------------------------------------|

Section W/Solo
|-----------------------------------------------------------|
|-----------------------------------------------------------|
|-----------------------------------------------------------|
|-----------------------------------------------------------|
|-----------------------------------------------------------|
|-2--------4--------5---------4------2-----0---------5-4-0--|
| .        .        .         .      .     .         . . .  |
|                                                           |
|-----------------------------------------------------------|
|-12/17-----(17)-------(17)---------------------------------|
|-----------------------------------------------16-14-------|    [2x]
|-----------------------------------------------------------|
|-----------------------------------------------------------|
|-----------------------------------------------------------|
|                                                           |
|SOLO                                                       |
|-----------------------------------------------------------|
|-----------------------------------------------------------|
|--16p14----------14-------16p17----------14----14-14--(14)-|
|--------17-16-17----17-16-------17-16-17----17-------------|
|-----------------------------------------------------------|
|-----------------------------------------------------------|

Final Verse Section
|-------------------------------------------------------------------|
|-------------------------------------------------------------------|
|-------------------------------------------------------------------|
|---2-------------0-------------2------------7--------5--4--0--2----|
|---2-------------0-------------2------------7--------5--4--0--2----|
|---2-------------0-------------2------------7--------5--4--0--2----|
|
|-------------------------------------------------------------------|
|-12/17-------15/19--(19)----19b-17---------------------------------|
|--------------------------------------------14-------12-11---16----|
|----------------------------------------------------------12-14----|
|-------------------------------------------------------------------|
|-------------------------------------------------------------------|
|
|-------------------------------------------------------------------|
|-----12-10-8-7-5--12-10-8-7-8--12-10-8-7-5-------------------------|
|------x--x-x-x-x---x--x-x-x-x---x--x-x-x-x-------------------------|
|------9--7-5-4-2---9--7-5-4-5---9--7-5-4-2-------------------------|
|-------------------------------------------------------------------|
|-------------------------------------------------------------------|

The Last Bit, Which Is The Outro, Was Way Too Hard For Me To Tab.
I Could Only Understand A Couple Of Notes, But Not Enough To Tab 'em.
I Think It Sounds Like A Reverse Delay Or Something.

Comment If You see mistakes!																																																																													tf_artist = "Lamb Of God";											tf_song = "The Passing";																															         																																																																																																		

 
 
Lamb Of God - The Passing Tab :: indexed at Ultimate Guitar.
The Passing tabs @ 911Tabs

Quick tip, so you can enjoy The Passing Tab even more:

Try out the AutoScroller option ... It scrolls the page for you, so you can totally focus on nailing that solo. You can choose among different speeds using your mouse or your keyboard (keys 0, 1, 2 and 3).

Show us your talent, perform The Passing Tab!

Here you can post a video or audio performance. Tell me more ...
Where can we find your performance? Tell me more ...
Your comment:
Please, log in to post your performance.