Artists by letter: A B C D E F G H I J K L M N O P Q R S T U V W X Y Z 0-9

 
Long Road To Ruin Tab
 																																													Long Road To Ruin Tab									by Foo Fighters tabs |											tabbed by kylel95 | 									comments (0) 																																													1																							2																							3																							4																							5																																						   								 																	 									print																																							 									send																																							 									report																																																																																									More versions:																																			solos										versions										video lessons																																																																									 																																																																																																	Ver 1																																																																																																																						Ver 1																																																																		Ver 2																																																																		Ver 3																																																																		Ver 4																																																																		Ver 6																																																																																																																							Ver 1																																																																			 																																																																																																																																																						Recommended tabs																																																											If you like Long Road To Ruin Tab by Foo Fighters you might also like these songs:																									Learn To Fly Tabby Foo Fighters																									Wonderwall Chordsby Oasis																									Pretender Tabby Foo Fighters																																																																																																																																Long Road To Ruin Lyricsby Foo Fighters Lyrics																						Long Road To Ruin Tabat 911Tabs.com																																																						 																																																																																																																																																																																												 																																																																																																																												+ to speed up (numpad)															- to slow down (numpad)															Esc to stop																												Help																																																																																																																																																											Long Road To Ruin tab by Foo Fighters, www.Ultimate-Guitar.Com																																													Listen to Long Road To Ruin																																														Add to favourites																																																																				Difficulty: intermediate																																																																																			tf_artist = "Foo Fighters";											tf_song = "Long Road To Ruin";																																																												Foo Fighters - Long Road To Ruin

Album: Echoes, Silence Patience & Grace
Instrument: Guitar
Tuning: eBGDAE

Tabbed By: Dave, 123456789, GrahamJ


Intro
e||--x--||
B||--1--||
G||--0--||
D||--2--||
A||--3--||
E||--3--||


Verse
Gtr. 1
e||--3--3--3--3--||
B||--1--1--1--1--||
G||--0--0--2--2--||
D||--2--2--3--3--||
A||--3--3--x--x--||
E||--x--x--x--x--||


Gtr. 2
   1x                      3x
e||-----------------------|--3-----------------------||
B||--1--3--5--3--1--0--1--|-----1--3--5--3--1--0--1--||
G||-----------------------|--------------------------||
D||-----------------------|--------------------------||
A||-----------------------|--------------------------||
E||-----------------------|--------------------------||


Pre chorus
Gtr. 1
e ||-----3--------3--------3--------3--------3--------3--------3-----||
B ||--------1--------1--------1--------1--------1--------1--------1--||
G ||-----------------------------------------------------------------||
D ||-----------------------------------------------------------------||
A ||--0--------2--------3--------2--------0--------2--------3--------||
E ||-----------------------------------------------------------------||

Gtr. 2
e ||-----------------------------------------------------------------x--||
B ||-----------------------------------------------------------------3--||
G ||-----------------------------------------------------------------2--||
D ||-----------------------------------------------------------------0--||
A ||--0-----0--2-----2--3--0--3--2-----2--0-----0--2-----2--3--0--3--x--||
E ||-----1--------3-----------------3--------1--------3--------------x--||


Chorus
Gtr. 1
e||-----------------------------------------------------------------------------||
B||--1-1-1-1-1--1-1-1-1-1--1-1-1-1-1---1-1-1---1-1--1-1-1-1---3-3-3-3-----------||
G||--2-2-2-2-2--0-0-0-0-0--2-2-2-2-2---0-0-0---0-0--2-2-2-2---2-2-2-2-----------||
D||--3-3-3-3-3--2-2-2-2-2--3-3-3-3-3---2-2-2---2-0--2-2-2-2---0-0-0-0--3-3-3-3--||
A||--3-3-3-3-3--3-3-3-3-3--3-3-3-3-3---3-3-3---3-2--0-0-0-0---0-0-0-0--3-3-3-3--||
E||--------------------------------------------------------------------1-1-1-1--||

Gtr. 2
e||-----------------------------------------------------------------||
B||-----------------------------------------------------------------||
G||-------------5-5-5-5-5-------------5-5-5--5-5-----------7-7-7-7--||
D||--3-3-3-3-3--5-5-5-5-5--3-3-3-3-3--5-5-5--5-5--7-7-7-7--7-7-7-7--||
A||--3-3-3-3-3--3-3-3-3-3--3-3-3-3-3--3-3-3--3-2--7-7-7-7--5-5-5-5--||
E||--1-1-1-1-1--3-3-3-3-3--1-1-1-1-1--3-3-3-------5-5-5-5--5-5-5-5--||

e||--------------------------------------||
B||--------------------------------------||
G||--------------------------------------||
D||--3-3-3-3-5-5-5-5-7-7-7-7-9-9-9-9-10--||
A||--x-x-x-x-x-x-x-x-x-x-x-x-x-x-x-x--x--||
E||--1-1-1-1-3-3-3-3-5-5-5-5-7-7-7-7--8--||


Verse


Pre chorus


Chorus


Bridge
Gtr. 1
e||-----3--------3--------3--------3--------3--------3--------3-----||
B||--------1--------1--------1--------1--------1--------1--------1--||
G||-----------------------------------------------------------------||
D||-----------------------------------------------------------------||
A||--0--------2--------3--------2--------0--------2--------3--------||
E||-----------------------------------------------------------------||

Gtr. 2
  5x       1x       1x
e|--3--3--|--x--3--|--------------------------------------------------||
B|--1--1--|--1--1--|--------------------------------------------------||
G|--0--0--|--0--0--|--------------------------------------------------||
D|--2--x--|--2--x--|--------------------------------------------------||
A|--3--2--|--3--2--|--0-----0--2-----2--3--0--3--2-----2--0-----0--2--||
E|--------|--3-----|-----1--------3-----------------3--------1--------||


Solo
Gtr. 1
e||------------------------------------------------------------||
B||------8-8-5b6b5-3h5p3-3-------------8-8-5b6b5-3-5-3---------||
G||------------------------5-5--------------------------5------||
D||--5-7-----------------------7-5-5-7--------------------7-5--||
A||------------------------------------------------------------||
E||------------------------------------------------------------||

e||-----------------------------------------------------------||
B||-----------------------------------------------------------||
G||--5h7p5---5------------------------------------------------||
D||--------7---7-5-2-0-2p0---0h2p0---0h2p0---0h2p0---0--------||
A||------------------------3-------3-------3-------3---3-0-3--||
E||-----------------------------------------------------------||

e||-----------------------------------------------||
B||--------------------5--------------------------||
G||--------------------5---5-7b99999-7-5-7-5h7p5--||
D||----------2-5-2-5-7---7------------------------||
A||--3-5-3-5--------------------------------------||
E||-----------------------------------------------||

e||-----------------------------------------||
B||-----------------------------------------||
G||--5-2p0---5-2p0---5-2p0---5-2p0----------||
D||--------2-------2-------2----------------||
A||--------------------------------3-5-3-0--||
E||-----------------------------------------||

Gtr. 2 
e||-----------------------------------------------------------------||
B||-----------------------------------------------------------------||
G||-------------5-5-5-5-5-------------5-5-5--5-5-----------7-7-7-7--||
D||--3-3-3-3-3--5-5-5-5-5--3-3-3-3-3--5-5-5--5-5--7-7-7-7--7-7-7-7--||
A||--3-3-3-3-3--3-3-3-3-3--3-3-3-3-3--3-3-3--3-2--7-7-7-7--5-5-5-5--||
E||--1-1-1-1-1--3-3-3-3-3--1-1-1-1-1--3-3-3-------5-5-5-5--5-5-5-5--||


Chorus
Gtr. 1
e||--------------------------------------------------------------------||
B||--1-1-1-1-1--1-1-1-1-1--1-1-1-1-1---1-1-1---1-1--1-1-1-1---3-3-3-3--||
G||--2-2-2-2-2--0-0-0-0-0--2-2-2-2-2---0-0-0---0-0--2-2-2-2---2-2-2-2--||
D||--3-3-3-3-3--2-2-2-2-2--3-3-3-3-3---2-2-2---2-0--2-2-2-2---0-0-0-0--||
A||--3-3-3-3-3--3-3-3-3-3--3-3-3-3-3---3-3-3---3-2--0-0-0-0---0-0-0-0--||
E||--------------------------------------------------------------------||

Gtr. 2
e||-----------------------------------------------------------------||
B||-----------------------------------------------------------------||
G||-------------5-5-5-5-5-------------5-5-5--5-5-----------7-7-7-7--||
D||--3-3-3-3-3--5-5-5-5-5--3-3-3-3-3--5-5-5--5-5--7-7-7-7--7-7-7-7--||
A||--3-3-3-3-3--3-3-3-3-3--3-3-3-3-3--3-3-3--3-2--7-7-7-7--5-5-5-5--||
E||--1-1-1-1-1--3-3-3-3-3--1-1-1-1-1--3-3-3-------5-5-5-5--5-5-5-5--||


Outro
e||----------------------------------------------------------------------------------||
B||----------------------------------------------------------------------------------||
G||-----------------------------4-4-4-4--5-5-5-5--7-7-7-7--9-9-9-9--10-10-10-10------||
D||--3-3-3-3--5-5-5-5--7-7-7-7--x-x-x-x--x-x-x-x--x-x-x-x--x-x-x-x---x--x--x--x--10--||
A||--x-x-x-x--x-x-x-x--x-x-x-x--2-2-2-2--3-3-3-3--5-5-5-7--7-7-7-7---8--8--8--8---x--||
E||--1-1-1-1--3-3-3-3--5-5-5-5----------------------------------------------------8--||


*Lyrics* (From the postboard fans)

Hey now don't make a sound, say have you heard the news today?
One flag was taken down, to raise another in its place
A heavy cross you bare, a stubborn heart remains unchanged
No home, no life, no love, no stranger singing me your name

It may be the season, the colors change in the valleys skies
Dear God I've sealed my fate, runnin through hell, heaven can wait

Long road to ruin, there in your eyes
Under the cold street lights
No tommorow, no dead end in sight

Lets say we take this town, no king no queen of any state
Get up to shut it down, open the streets and raise the gates
I know I want to still, I know what I feel without a name
Head on without a care, before its way to late

It may be the season, the colors change in the valleys skies
Dear God I've sealed my fate, runnin through hell, heaven can wait

Long road to ruin, there in your eyes
Under the cold street lights
No tommorow, no dead ends
Long road to ruin, there in your eyes
Under the cold street lights
No tommorow, no dead end in sight

For every piece to fall in place
Forever gone without a trace
You who'll rise it takes its shape
No turning back, don't turn that page
Come now I'm leavin here tonight
Come now lets leave it all behind
Is that the price you pay?
Runnin through hell, heaven can wait

Long road to ruin, there in your eyes
Under the cold street lights
No tommorow, no dead ends
Long road to ruin, there in your eyes
Under the cold street lights
No tommorow, no dead ends
Long road to ruin, there in your eyes
Under the cold street lights
No tommorow, no dead end in sight
_____________________
																																															Long Road To Ruin Lyrics																																																	tf_artist = "Foo Fighters";											tf_song = "Long Road To Ruin";																															         																																																																																																		

 
 
Foo Fighters - Long Road To Ruin Tab :: indexed at Ultimate Guitar.
Long Road To Ruin tabs @ 911Tabs

About the artist behind Long Road To Ruin Tab:

Foo Fighters is an American alternative rock band formed by singer/guitarist Dave Grohl in 1995.[1] Grohl formed the group as a one-man project after the dissolution of his previous band Nirvana in 1994. Prior to the release of Foo Fighters in 1995, Grohl drafted Nate Mendel (bass), William Goldsmith (drums), and Pat Smear (guitar) to complete the group. Goldsmith and Smear left after the recording of the group's second album The Colour and the Shape (1997). They were replaced by Taylor Hawkins and Franz Stahl, respectively, although Stahl left prior to the recording of the group's third album, There Is Nothing Left to Lose (1999).

Chris Shiflett joined as the band's second guitarist after the completion of There is Nothing Left to Lose. The band released its fourth album One by One in 2002. The group followed that release with the two-disc In Your Honor (2005), which was split between acoustic songs and harder-rocking material. Foo Fighters released its sixth album Echoes, Silence, Patience & Grace in 2007. Over the course of the band's career, three of its albums have won Grammy Awards for Best Rock Album, and all six have been nominated for Grammys.

Indexed at Wikipedia.

Show us your talent, perform Long Road To Ruin Tab!

Here you can post a video or audio performance. Tell me more ...
Where can we find your performance? Tell me more ...
Your comment:
Please, log in to post your performance.