Artists by letter: A B C D E F G H I J K L M N O P Q R S T U V W X Y Z 0-9

 
Regression Chords
-------------------------------------------------------------------------------
			     Regression - Dream Theater
-------------------------------------------------------------------------------
Tabbed by: DroogieSteve

Standard Tuning

Chords:
Bm     Bm/A   E/G#   A7sus4 A7     D      D/F#   G5     G      D/Db
--2--  --2--  -----  --0--  --0--  --2--  -----  --3--  --3--  --2--
--3--  --3--  --5--  --3--  --2--  --3--  --3--  --3--  --3--  --3--
--4--  --4--  --4--  --0--  --0--  --2--  --2--  --0--  --0--  --2--
--4--  --4--  --2--  --2--  --2--  --0--  --0--  --0--  --0--  --x--
--2--  --0--  --x--  --0--  --0--  -----  --x--  --x--  --2--  --4--
-----  -----  --4--  -----  -----  -----  --2--  --3--  -----  ----
Rhythm: 6/8

Intro: Bm   Bm/A   E/G#   A7sus4  A7 
(played quietly towards end of Monologue)

D                         D/F#
Safe in the light that surrounds me
G5          G             D         D/Db
Free of the fear and the pain
   Bm                       Bm/A
My Subconcious mind, starts spinning through time
   E/G#                  A7sus4      A7
To rejoin the past once again
    D                       D/F#
And nothing seems real, I'm starting to feel
G5          G         D         D/Db
Lost in the haze of a dream
    Bm                  Bm/A
And as I draw near, the scene becomes clear
     E/G#                  A7sus4    A7
Like watching my life on a screen
G5       G      A7sus4     A7          D
Hello Victoria, so glad to see you, my friend

 
 
Dream Theater - Regression Chords :: indexed at Ultimate Guitar.
Regression tabs @ 911Tabs

Quick tip, so you can enjoy Regression Chords even more:

If you don't really know how to deal with "Absus4" chord and his equally confusing brothers, just put the mouse cursor over them and you will be shown a helpful chord diagram.

Show us your talent, perform Regression Chords!

Here you can post a video or audio performance. Tell me more ...
Where can we find your performance? Tell me more ...
Your comment:
Please, log in to post your performance.