Artists by letter: A B C D E F G H I J K L M N O P Q R S T U V W X Y Z 0-9

 
The Rumour Tab
---------------------------------------------------------------------
 The Rumour - You Me At Six
---------------------------------------------------------------------
I decided to tab this out since I haven't really found a good tab for The Rumour, and 
that it might be useful for you guys...I tabbed it out by ear for my old band to play, a 
before You Me At Six became famous when not many people knew who they were.
So please note that You Me At Six have re-recorded much of their old material which I 
not bought yet which means this will fit the old version of the song they had (the better 
:)!)
Please e-mail me if you find any mistakes or are unsure on a certain part -

Tab by Tristan Snell (seeyouattheshow)
[email protected]

Tuning (drop D):
E
B
G
D
A
D

Verse 1

Guitar 1
Picked
Well i am the cancer...
E |-------------------------------------------|
B |---------------2---2-1--2------------------|
G |------------3------------------------------|
D |-----3-------------------------------------|
A |--1------1---------------------------------|
D |-------------------------------------------| x4


Guitar 2 (This part IS here, you have to listen carefully, using headphones helps. I 
it is right):

E |--------------------------------------------|
B |--------------------------------------------|
G |--------------------------------------------|
D |--6-6-6-6-6--6-6-8-8-8-8-5-5-5-5------------|
A |--------------------------------------------|
D |--------------------------------------------| x4
PM- - - - - - - - - - - - - - - - - - - - - - - - -

Guitar 1
Down the side of your face...
E |-----------------------------------------|
B |----------2--1---------------------------|
G |-----------------1-----------------------|
D |----6------------------------------------|
A |----6------------------------------------|
D |----6------------------------------------|
(Let chord ring)

Guitar 2

E |-----------------------------------------|
B |-----------------------------------------|
G |-----------------------------------------|
D |----6------------------------------------|
A |----6------------------------------------|
D |----6------------------------------------|
(Let chord ring)

Then back to

Guitar 1
Picked
Well I am the pain...
E |-----------------------------------------|
B |---------------2---2-1--2----------------|
G |------------3----------------------------|
D |------3----------------------------------|
A |--1------1-------------------------------|
D |-----------------------------------------| x4

Guitar 2

E |--------------------------------------------|
B |--------------------------------------------|
G |--------------------------------------------|
D |--6-6-6-6-6--6-6-8-8-8-8-5-5-5-5------------|
A |--------------------------------------------|
D |--------------------------------------------| x4
PM - - - - - - - - - - - - - - - - - - - - - - - -


Pre-Chorus

Guitar 1
We had to try something different...
E |------------------------------------------------------------------|
B |------------------------------------------------------------------|
G |----6-6-6-6-6--6--8-8-8--5-5-5--6-6-6-6-6--6--8-8-8--5-5-5--------|
D |----8-8-8-8-8--8--x-x-x--x-x-x--8-8-8-8-8--8--x-x-x--x-x-x--------|
A |----8-8-8-8-8--8--6-6-6--3-3-3--8-8-8-8-8--8--6-6-6--3-3-3--------|
D |----8-8-8-8-8--8----------------8-8-8-8-8--8----------------------|

E |------------------------------------------------------------------|
B |------------------------------------------------------------------|
G |----6-6-6-6-6--6--8-8-8--5-5-5---6-6-6-6-6--6--5-5-5-5-5-5--------|
D |----8-8-8-8-8--8--x-x-x--x-x-x---8-8-8-8-8--8--x-x-x-x-x-x--------|
A |----8-8-8-8-8--8--6-6-6--3-3-3---8-8-8-8-8--8--3-3-3-3-3-3--------|
D |----8-8-8-8-8--8-----------------8-8-8-8-8--8---------------------|  x2

Guitar 1

E |-------------------------------------------|
B |--2-2-2-2--2-2-2-2--2-2--------------------|
G |--3-3-3-3--3-3-3-3--3-3--------------------|
D |--3-3-3-3--3-3-3-3--3-3--------------------|
A |--1-1-1-1--1-1-1-1--1-1--------------------|
D |-------------------------------------------|


Chorus
Guitars 1&2

E |-------------------------------------------------------|
B |-------------------------------------------------------|
G |----6-6-6-6--6-6-6-6-6-6-------------------------------|
D |----8-8-8-8--8-8-8-8-8-8----4-4-4-4-4-4-4-4-4-4-4-4----|
A |----8-8-8-8--8-8-8-8-8-8----4-4-4-4-4-4-4-4-4-4-4-4----|
D |----8-8-8-8--8-8-8-8-8-8----4-4-4-4-4-4-4-4-4-4-4-4----| x8


2nd Verse
The 2nd verse, pre-chorus and chorus are all the same as the first.


Interlude
Alarm....
Guitar 1
E |------------------------------------------------------------------------|
B |------------------------------------------------------------------------|
G |------------------------------------------------------------------------|
D |----8-8-8-8-8-8-8-8-8-8-8-8-8-8-8-8--4-4-4-4-4-4-4-4-4-4-4-4-4-4-4-4----|
A |----8-8-8-8-8-8-8-8-8-8-8-8-8-8-8-8--4-4-4-4-4-4-4-4-4-4-4-4-4-4-4-4----|
D |----8-8-8-8-8-8-8-8-8-8-8-8-8-8-8-8--4-4-4-4-4-4-4-4-4-4-4-4-4-4-4-4----|
PM - - - - - - - - - - - - - - - - - - - - - - - - - - - - -  - - - - - - -

E |------------------------------------------------------------------------|
B |------------------------------------------------------------------------|
G |------------------------------------------------------------------------|
D |----6-6-6-6-6-6-6-6-6-6-6-6-6-6-6-6-6-6-6-6-6-6-6-6-6-6-6-6-6-6-6-6-----|
A |----6-6-6-6-6-6-6-6-6-6-6-6-6-6-6-6-6-6-6-6-6-6-6-6-6-6-6-6-6-6-6-6-----|
D |----6-6-6-6-6-6-6-6-6-6-6-6-6-6-6-6-6-6-6-6-6-6-6-6-6-6-6-6-6-6-6-6-----|
PM - - - - - - - - - - - - - - - - - - - - - - - - - - - - -  - - - - - - -


Guitar 2:

E |-------------------------------------------------------|
B |-------------------------------------------------------|
G |-------------------------------------------------------|
D |----11-11-11-11-11-11-11-11-11-11-11-11-11-11-11-11----|
A |-------------------------------------------------------|
D |-------------------------------------------------------|
PM - - - - - - - - - - - - - - - - - - - - - - - - - - - -

E |-----------------------------------------------------------------------|
B |-----------------------------------------------------------------------|
G |-----------------------------------------------------------------------|
D |----10-10-10-10-10-10-10-10-10-10-10-10-10-10-10-10--------------------|
A |-----------------------------------------------------------------------|
D |-----------------------------------------------------------------------|
PM - - - - - - - - - - - - - - - - - - - - - - - - - - - - - - - - - - - -

E |-----------------------------------------------------------------------|
B |-----------------------------------------------------------------------|
G |-----------------------------------------------------------------------|
D |----13-13-13-13-13-13-13-13-13-13-13-13-13-13-13-13--------------------|
A |-----------------------------------------------------------------------|
D |-----------------------------------------------------------------------|
PM - - - - - - - - - - - - - - - - - - - - - - - - - - - - - - - - - - - - - - - -

E |-----------------------------------------------------------------------|
B |-----------------------------------------------------------------------|
G |-----------------------------------------------------------------------|
D |----10-10-10--11-11-11--10-10-10-11-11-11--10-10-11--------------------|
A |-----------------------------------------------------------------------|
D |-----------------------------------------------------------------------|

Outro

The outro is simply what guitar 1 plays in the interlude, but strummed by both guitars

[email protected]

 
 
You Me At Six - The Rumour Tab :: indexed at Ultimate Guitar.
The Rumour tabs @ 911Tabs

Quick tip, so you can enjoy The Rumour Tab even more:

Try out the AutoScroller option ... It scrolls the page for you, so you can totally focus on nailing that solo. You can choose among different speeds using your mouse or your keyboard (keys 0, 1, 2 and 3).

Show us your talent, perform The Rumour Tab!

Here you can post a video or audio performance. Tell me more ...
Where can we find your performance? Tell me more ...
Your comment:
Please, log in to post your performance.