Artists by letter: A B C D E F G H I J K L M N O P Q R S T U V W X Y Z 0-9

 
Pot Tab
Song: The Pot

Band: Tool

Album: 10,000 Days

Release: 2006

Written By: Maynard James Keenan

Tuning: Drop D

FIGURE OUT THE STRUMMING PATTERNS AND REPEATS

(Main Riff)
E|----------------------|
B|----------------------|
G|----------------------|
D|----------------------|
A|---5----5-----5-----3-|
D|-00--000--0000--00-3--|
*PM..  ...  ....  .. .

(Pre-Verse)
E|----------------------------|
B|----------------------------|
G|----------------------------|
D|--10b~--10b~--10b~--10b~-x/-|
A|-------------------------x/-|
D|-0----0------0-----0-----x/-|


(Verse)
E|-----------------------|
B|-13-10-20/-------------|
G|-----------------------|
D|----------10-12-10/----|
A|-----------------------|
D|-----------------------|
*Tremelo Pick Each Note
-Listen For Timing

(Pre-Chorus) *This is also played during the chorus*
E|----------------------|
B|----------------------|
G|----------------------|
D|----------------------|
A|---5---5-----5------3-|
D|-00-000--0000--0-3h5--|
*PM.. ...  ....

(Chorus)
E|----------------------------|-(ENDING-OF-CHORUS)----------|
B|----------------------------|-----------------------------|
G|----------------------------|-----------------------------|
D|----------------------------|-----------------------------|
A|---5----3-----------10----5-|-----------------------------|
D|-55--333---10-10-10----5-6-6|--1111-1p0-------------------|

*Main Riff*

(Bridge 1)
E|-----------------|
B|-----------------|
G|-----------------|
D|-10b~-0~-x/-10b~-|
A|-10b~-0~-x/-10b~-|
D|-10b~-0~-x/-10b~-|

*Pre Chorus*
*Chorus*

(Figure 1)
E|--------------|-------------|-------------|--------------|
B|--------------|-------------|-------------|--------------|
G|--------------|-------------|-------------|--------------|
D|--------------|-------------|-------------|--------------|
A|-00-----5p0---|-22----5p0---|-33----5p0---|-55----5p0----|
D|-00--5h7---xx-|-22-5h7---xx-|-33-5h7---xx-|-55-5h7---xx--|

(Figure 2)
E|----------------------------------------------|----Ending-------|
B|----------------------------------------------|-----------------|
G|----------------------------------------------|-----------------|
D|-00----00---------00--------00----------------|-----------------|
A|-00----00---22----00---33---00---55----5p0----|--55xx-88xx-33---|
D|-00-xx---xx-22-xx---xx-33-xx--xx-55-5h7---5p0-|--55xx-88xx-33---|

(Bridge 2)
E|----------------------------|-----------------------------|
B|----------------------------|-----------------------------|
G|----------------------------|-----------------------------|
D|----------------------------|-----------------------------|
A|-----------12-----------12--|-----------12-----------15---|
D|-00-0h10h12--12-00-10h12--12|-00-0h10h12--12-00-12h15--15-|
*Palm Mute

E|--------------------------|-------------------------|
B|--------------------------|-------------------------|
G|--------------------------|-------------------------|
D|--------------------------|-------------------------|
A|-00--------12----88-0--7--|-10-0-/5-----88-0-55-----|
D|-00-0h10h12--12-8----5--8-|-10-0---7-0-8-----55-5---|

E|----------------------------------------------------------|
B|----------------------------------------------------------|
G|----------------------------------------------------------|
D|----------------------------------------------------------|
A|----------------------------------------------------------|
D|-0-10p0-00-12p0-10p0-00-10h12-0-13-0-10h12-0-13-0-12p10p0-|
*Palm Mute

E|---------------------------------|-------------------------------------|
B|---------------------------------|-------------------------------------|
G|---------------------------------|-------------------------------------|
D|---------------------------------|---------------3h5-3-----------------|
A|---------3h5-----------3h5----|-333-----3-3h5-------5-3h5---------0-|
D|-0000-3h5---000----000-3h5---0-0-|----5-3h5-5----------------3h5-3h5-0-|(End Bridge 2)
*Palm Mute Open Notes                      *This is not exact (I dont think so anyway)
                                            But strum really fast and improvise.

*Main Riff*
*First Part Of Brige 1*
*Chorus*
*Figure 1 Twice*
*Figure 2*

(Outro)
E|-----------------------------------------------------------------------------------------|
B|-----------------------------------------------------------------------------------------|
G|-----------------------------------------------------------------------------------------|
D|-----------------------------------------------------------------------------------------|
A|-5----3----5------3-5--------6-5----3----5------3-5--------6-5--3--5----3-5--------6-----|
D|--7700-5500-7700-3---7700-3/8---7700-5500-7700-3---7700-3/8---70-50-70-3---7700-3/8------|
*PM .... .... ....     ....       .... .... ....     ....       .. .. ..     ....

E|--------------------------------------------|
B|--------------------------------------------|
G|--------------------------------------------|
D|--------------------------------------------|
A|-5----3----5------3-5--------6--------------|
D|--7700-5500-7700-3---7700-3/8---------------|
    .... .... ....     ....

Who are you to wave your finger?
Ya' must have been out your head.
Eye hole deep in muddy waters.
You practically raised the dead.

Rob the grave, to snow the cradle.
Then burn the evidence down.
Soapbox, house of cards, and glass,
So don't go tossin' your stones around.

You must have been high.
You must have been high.
You must have been.

Foot in mouth, and head up ass so.
Whatcha talkin' 'bout?
Difficult to dance 'round this one
'til you pull it out, boy!

You must have been, so high.
You must have been, so high.

Steal, barrow, reaver, savior, shady inference.
kangaroo done hung the juror with the innocent.

Now you'll weep or change the cozened indigo
Got lemon juice up in your...EYE!

When you p***ed all over my black kettle
You must have been HIGH, HIGH
You must have been HIGH, HIGH

Who are you to wave your finger?
So full of it.
Eyeballs deep in muddy waters
F***in' hypocrite.

Liar, lawyer, mirror, show me.
What's the difference?

kangaroo done hung the guilty with the innocent.

NOW!!
You'll weep or, change the cozened indigo.
Got lemon juice up in your high eye.
When you p***ed all over my black kettle
You musta been!

So who are you to wave your finger?
Who are you to wave your fatty fingers at me?
You must, have been, out your, mind!

Weepin' shades of indigo
Shed without a reason
Weepin' shades of indigo

Liar, lawyer,
Mirror for ya,
What's the difference?
kangaroo be stoned
He's guilty as the government

NOW!!
Will you weep or, change the cozened indigo
Got lemon juice up in your, EYE!!
EYE!!

Now when you p***ed all over my black kettle.
You musta been HIGH, HIGH, HIGH, HIGH.
Eyeballs deep in muddy waters
Your balls deep in muddy waters.
Ganja, please, you must have been out your MIND!!!!

 
 
Tool - Pot Tab :: indexed at Ultimate Guitar.
Pot tabs @ 911Tabs
People who played Tool - Pot Tab also played these songs by Tool:
Sober Acoustic Tab, Schism Chords, Opiate Acoustic Chords, Right In Two Chords, Sober Tab, Lateralus Tab, Jambi Tab

About the artist behind Pot Tab:

Tool is an American rock band that was formed in 1990 in Los Angeles, California. The band consists of drummer Danny Carey, bassist Justin Chancellor, guitarist Adam Jones, and vocalist Maynard James Keenan. Tool has won three Grammy Awards, hosted worldwide tours, and produced albums which have performed well on international music charts.[1]

The band emerged with a heavy metal sound on their first LP at a time when the genre was dominated by thrash metal, and later reached the top of the alternative metal movement with the release of their second LP, ├ćnima, in 1996. Their efforts to unify musical experimentation, visual arts, and a message of personal evolution continued with Lateralus (2001) and their most recent album, 10,000 Days (2006), gaining the band critical acclaim and success around the world. Due to Tool's incorporation of visual arts and relatively long and complex releases, the band is generally described as a style-transgressing act and part of progressive and art rock. The relationship between the band and today's music industry is ambivalent,[2] at times marked by censorship and the band members' insistence on privacy.[3]

Indexed at Wikipedia.

Show us your talent, perform Pot Tab!

Here you can post a video or audio performance. Tell me more ...
Where can we find your performance? Tell me more ...
Your comment:
Please, log in to post your performance.