Artists by letter: A B C D E F G H I J K L M N O P Q R S T U V W X Y Z 0-9

 
King Of Glory Tab
Tuning: Standard (eBGDAE)

Capo 2

I am positive that this tab is 100% accurate. = )

Intro: (finger picking)

e|----------------------------------------------------------------|
B|--3-----3-----3--2-3p2-------2--0-----0------2-----0------------|
G|----2-----2------------2----------0-----0------2-----0----------|
D|--0---0-----0--------------2--------0-----0------0-----0--------|
A|-----------------0-------0--------------------------------------|
E|--------------------------------3-------------------------------|
   (D)            (A)            (G)          (A)

Verse 1: (first two lines with intro)

  Who is this King of Glory, that pursues me with His love
e|----------------------------------------------------------------|
B|--3-----3-----3--2-3p2-------2--3-----3-----3--2-----0-------0--|
G|----2-----2------------2----------0-----0--------2-----0---0----|
D|--0---0-----0--------------2--------0-----0--------0-----0------|
A|-----------------0-------0---------------------0----------------|
E|--------------------------------3-------------------------------|
   (D)            (A)            (G)            (A)

  And haunts me with each hearing of his softly spoken words.
e|----------------------------------------------------------------|
B|--3-----3-----3--2-3p2-------2--3-----3-----3--2-3p2-------2----|
G|----2-----2------------2----------0-----0------------2----------|
D|--0---0-----0--------------2--------0-----0--------------2------|
A|-----------------0-------0---------------------0-------0--------|
E|--------------------------------3-------------------------------|
   (D)            (A)            (G)            (A)

  My conscience, a reminder of forgiveness that I need.
e|---3----------------------------2-----------------------2----2--|
B|---3----------------------------3-----------------------2----3--|
G|---0----------------------------4-----------------------4----4--|
D|---0----------------------------4-----------------------4----4--|
A|---2----------------------------2-----------------------2----2--|
E|---3------------------------------------------------------------|
    (G)                          (Bm)                    (B2) (Bm)

  Who is this King of Glory, who offers it to me?
e|----0---------------------3-----------------0h2------0h2--------|
B|----0---------------------3-----------------3--------3----------|
G|----2---------------------0-----------------2--------2----------|
D|----2---------------------0-----------------0--------0----------|
A|----0---------------------2-------------------------------------|
E|--------------------------3-------------------------------------|
     (A2)                  (G)               (D2-D)

Verse 2:

(While the chords are strummed in this section, another guitarist is playing the same 
picking pattern in the background.)

  Who is the King of Angels, O blessed Prince of Peace.
e|----2---------------------0--3--------------------------0----0--|
B|----3---------------------2--3--------------------------2----0--|
G|----2---------------------2--0--------------------------2----2--|
D|----0---------------------2--0--------------------------2----2--|
A|--------------------------0--2--------------------------0----0--|
E|-----------------------------3----------------------------------|
     (D)                   (A)(G)                        (A)  (A2)

  Revealing things of heaven, and all its mysteries.
e|--2------------------------0----3-----------------------0----0--|
B|--3------------------------2----3-----------------------2----0--|
G|--2------------------------2----0-----------------------2----2--|
D|--0------------------------2----0-----------------------2----2--|
A|---------------------------0----2-----------------------0----0--|
E|--------------------------------3-------------------------------|
   (D)                      (A)  (G)                     (A)  (A2)

  My spirit's ever longing, for His grace in which to stand.
e|---3------------------------------2---------------------2----2--|
B|---3------------------------------3---------------------2----3--|
G|---0------------------------------4---------------------4----4--|
D|---0------------------------------4---------------------4----4--|
A|---2------------------------------2---------------------2----2--|
E|---3------------------------------------------------------------|
    (G)                            (Bm)                  (B2) (Bm)

  Who is this King of Glory, Son of God and Son of Man?
e|----0---------------------3----------------------0h2------0h2---|
B|----0---------------------3----------------------3--------3-----|
G|----2---------------------0----------------------2--------2-----|
D|----2---------------------0----------------------0--------0-----|
A|----0---------------------2-------------------------------------|
E|--------------------------3-------------------------------------|
     (A2)                  (G)                    (D2-D)

Chorus:
              G               Bm
  His name is Jesus, Precious Jesus
             A                   G
  The Lord Almighty, the King of my heart
              D
  The King of Glory.

Verse 3:

      D                   A       G                     A
  Who is this King of Glory, with strength and majesty
      D                   A      G                       A
  And wisdom beyond measure, the gracious King of Kings.
      G                             Bm
  The Lord of Earth and Heaven, the Creator of all things.
      A                                         D
  Who is this King of Glory, He's everything to me!

(Chorus)

Interlude: D A G A  x2

      G                             Bm
  The Lord of Earth and Heaven, the Creator of all things.
     A                                         D
  He is this King of Glory, He's everything to me!

(Chorus) x6

Closing: He ends going between D/D2 and A2/A/Asus

End on D.


Great song - one that I've only started appreciating recently. But anyways hope that 
can be a blessing to whoever is out there reading this.

God bless, all!

 
 
Third Day - King Of Glory Tab :: indexed at Ultimate Guitar.
King Of Glory tabs @ 911Tabs

About the artist behind King Of Glory Tab:

Third Day is a CCM band formed in Marietta, Georgia during the 1990s. The band was founded by lead singer Mac Powell and guitarist Mark Lee. The other band members are Tai Anderson (bass), and David Carr (drums). The band's name is a reference to the biblical account of Jesus rising from the dead on the third day following his crucifixion.

Indexed at Wikipedia.

Show us your talent, perform King Of Glory Tab!

Here you can post a video or audio performance. Tell me more ...
Where can we find your performance? Tell me more ...
Your comment:
Please, log in to post your performance.