Artists by letter: A B C D E F G H I J K L M N O P Q R S T U V W X Y Z 0-9

 
This Is The End Tab
-------------------------------------------------------------------------------
			   THIS IS THE END - The Maine
-------------------------------------------------------------------------------
Tabbed by: Shawn
Email: [email protected]


Tuning: Standard *****Capo on the 4th fret******

Intro
Gtr.1
e|-00000000000000000000000-000000000000000000000000--|
B|-55555555555555555444000-555555555555555555444000--|
G|---------------------------------------------------|
D|---------------------------------------------------|
A|---------------------------------------------------|
E|---------------------------------------------------|

e|-0000000000000000000000-000000000-000000000000000--|
B|-5555555555555555444000-555555555/777444444444444--|
G|---------------------------------------------------|
D|---------------------------------------------------|
A|---------------------------------------------------|
E|---------------------------------------------------|



1st Chorus (No Vocals)
Gtr.1
e|----------------------------0--------------------------------------|
B|--4b5r4b5r4--0--2---0-------0----4b5r4b5r4--0-----0----------------|
G|-----------------------------------------------1-------------------|
D|----------------------2h4h6-------------------------2h4h6-4-2------|
A|-------------------------------------------------------------------|
E|-------------------------------------------------------------------|

Gtr.2
e|---------------------------------------------------|
B|---------------------------------------------------|
G|--6-6---2-2---4-4-----------6-6---2-2---4-4--------|
D|--6-6---2-2---4-4---2-2-----6-6---2-2---4-4---2-2--|
A|--4-4---0-0---2-2---2-2-----4-4---0-0---2-2---2-2--|
E|--------------------0-0-----------------------0-0--|


Verse 1
Gtr.1
e|-00000000000000000000000-000000000-000000000000000--|
B|-55555555555555555444000-555555555/777444444444444--|
G|----------------------------------------------------|
D|----------------------------------------------------|
A|----------------------------------------------------|
E|----------------------------------------------------|

Gtr.2
e|---------------------------------xxx----|
B|---------------------------------xxx----|
G|--2---6--4~--4-4---2---6--4-4-4--xxx----|
D|--2---6--4~--4-4---2---6--4-4-4--xxx----|
A|--0---4--2~--2-2---0---4--2-2-2--xxx----|
E|---------------------------------xxx----|x2


Pre-Chorus
Gtr. 2
e|----------------|
B|----------------|
G|-222222222222---|
D|-222222222222---|
A|-000000000000---|
E|----------------|


2nd Chorus
Gtr.1
e|----------------------------0--------------------------------------|
B|--4b5r4b5r4--0--2---0-------0----4b5r4b5r4--0-----0----------------|
G|-----------------------------------------------1-------------------|
D|----------------------2h4h6-------------------------2h4h6-4-2------|
A|-------------------------------------------------------------------|
E|-------------------------------------------------------------------|x2

Gtr.2
e|---------------------------------------------------|
B|---------------------------------------------------|
G|--6-6---2-2---4-4-----------6-6---2-2---4-4--------|
D|--6-6---2-2---4-4---2-2-----6-6---2-2---4-4---2-2--|
A|--4-4---0-0---2-2---2-2-----4-4---0-0---2-2---2-2--|
E|--------------------0-0-----------------------0-0--|x2


Pre-2nd Verse
Gtr.1
e|-00000000000000000000000-000000000-000000000000000-xxx-|
B|-55555555555555555444000-555555555/777444444444444-xxx-|
G|---------------------------------------------------xxx-|
D|---------------------------------------------------xxx-|
A|---------------------------------------------------xxx-|
E|---------------------------------------------------xxx-|


2nd Verse
Gtrs. 1&2
e|-------------------------------------|
B|-------------------------------------|
G|--2--6--4-4-4/6-----2--6--4-4-4------|
D|--2--6--4-4-4/6-----2--6--4-4-4-2----|
A|--0--4--2-2-2/4-----0--4--2-2-2-2----|
E|--------------------------------0----|x2


Pre-Chorus
Gtr. 2
e|----------------------------|
B|----------------------------|
G|-222222222222-444444444444--|
D|-222222222222-444444444444--|
A|-000000000000-222222222222--|
E|----------------------------|


3rd Chorus
Gtr.1
e|----------------------------0--------------------------------------|
B|--4b5r4b5r4--0--2---0-------0----4b5r4b5r4--0-----0----------------|
G|-----------------------------------------------1-------------------|
D|----------------------2h4h6-------------------------2h4h6-4-2------|
A|-------------------------------------------------------------------|
E|-------------------------------------------------------------------|x2

Gtr.2
e|---------------------------------------------------|
B|---------------------------------------------------|
G|--6-6---2-2---4-4-----------6-6---2-2---4-4--------|
D|--6-6---2-2---4-4---2-2-----6-6---2-2---4-4---2-2--|
A|--4-4---0-0---2-2---2-2-----4-4---0-0---2-2---2-2--|
E|--------------------0-0-----------------------0-0--|x2


Pre-Bridge
Gtr.2
e|----------------------------|
B|----------------------------|
G|-222222222222-444444444444--|
D|-222222222222-444444444444--|
A|-000000000000-222222222222--|
E|----------------------------|x2


Bridge
Gtr.1
e|-000000000000000000000000-000000000000000000000000----|
B|-555555555555555555777777-555555555555555555777777----|
G|------------------------------------------------------|
D|------------------------------------------------------|
A|------------------------------------------------------|
E|------------------------------------------------------|

e|-000000000000000000000000-000000000000000000000000-0~-|
B|-555555555555555555777777-555555555555444444444444-5~-|
G|------------------------------------------------------|
D|------------------------------------------------------|
A|------------------------------------------------------|
E|------------------------------------------------------|


Gtr.2
e|-444444444444444444555555-444444444444333333333333-5~-|
B|------------------------------------------------------|
G|------------------------------------------------------|
D|------------------------------------------------------|
A|------------------------------------------------------|
E|------------------------------------------------------|


Final Chorus
Gtr.1
e|----------------------------0--------------------------------------|
B|--4b5r4b5r4--0--2---0-------0----4b5r4b5r4--0-----0----------------|
G|-----------------------------------------------1-------------------|
D|----------------------2h4h6-------------------------2h4h6-4-2------|
A|-------------------------------------------------------------------|
E|-------------------------------------------------------------------|x4

Gtr.2
e|---------------------------------------------------|
B|---------------------------------------------------|
G|--6-6---2-2---4-4-----------6-6---2-2---4-4--------|
D|--6-6---2-2---4-4---2-2-----6-6---2-2---4-4---2-2--|
A|--4-4---0-0---2-2---2-2-----4-4---0-0---2-2---2-2--|
E|--------------------0-0-----------------------0-0--|x4

Gtr.3
e|-----7-5-4-2--0h2h4-2-0------7-5-4-2--0-2/4------7-5-4-2--0h2h4-2-0------7-5-4-2-0~--|
B|-4h5---------------------4h5-----------------4h5---------------------4h5-------------|
G|-------------------------------------------------------------------------------------|
D|-------------------------------------------------------------------------------------|
A|-------------------------------------------------------------------------------------|
E|-------------------------------------------------------------------------------------|


Outro
Gtrs. 1&2
e|--------------------|
B|--------------------|
G|--2--6--4-4-4-------|
D|--2--6--4-4-4-2~----|
A|--0--4--2-2-2-2~----|
E|--------------0~----|

| /  slide up
| \  slide down
| b  bend up to note
| r  return
| h  hammer-on
| p  pull-off
| ~  let ring
| +  harmonic
| x  Mute note
===============================================================================

 
 
The Maine - This Is The End Tab :: indexed at Ultimate Guitar.
This Is The End tabs @ 911Tabs

Quick tip, so you can enjoy This Is The End Tab even more:

If you spend just 10 seconds to register, you will be able to comment on all the chords and tabs and rate them. You will as well be able to comment on videos of your fellow guitarists and give them ratings from 1 to 5 ... And - of course - you can share your own videos with them and see what they think of you. :)
Click here to join us!

Show us your talent, perform This Is The End Tab!

Here you can post a video or audio performance. Tell me more ...
Where can we find your performance? Tell me more ...
Your comment:
Please, log in to post your performance.