Artists by letter: A B C D E F G H I J K L M N O P Q R S T U V W X Y Z 0-9

 

Spit Tab
INTRO play it until the song starts
e||-------------------------------------|
B||-------------------------------------|
G||--(12)~~~~----12/\/\/\/\/\-----------|
D||-------------------------------------|
A||-------------------------------------|
E||-------------------------------------|

this goes after the 4th time the bass plays alone
repeat until the lyrics begin
E||------------------------------------------|
A||------------------------------------------|
D||------------------------------------------|
G||------------------------------4-4---3-3---|
B||-3------3------3------3-------2-2---1-1---|
e||-1--0-0-1--0-0-1--0-0-1-0-0---------------|

then the song goes like this
e||-------------------------------------|
B||-------------------------------------|
G||-------------------------------------|
D||-------------------------------------|
A||-3-----3-----3-----3-----------------|
E||-1-0-0-1-0-0-1-0-0-1-0-0-1-0-1-0-----|

"live your life...."
e||-----------------------------------------------------|
B||-----------------------------------------------------|
G||-----------------------------------------------------|
D||-----------------------------------------------------|
A||-5-5-5--1-1----4-4--1-1-1--5-5--8-8-8--8-8-8--8-8-8--|
E||-3-3-3--0-0----2-2--0-0-0--3-3--6-6-6--6-6-6--6-6-6--|

 
 
Sepultura - Spit Tab :: indexed at Ultimate Guitar.
Spit tabs @ 911Tabs

About the artist behind Spit Tab:

Sepultura is a Brazilian thrash metal band, formed in 1984.

Their name means "grave" in Portuguese, which they chose after Max Cavalera, one of the founding members, was translating the lyrics of the Motörhead song "Dancing on Your Grave" from their Another Perfect Day album.[4]

Indexed at Wikipedia.

Show us your talent, perform Spit Tab!

Here you can post a video or audio performance. Tell me more ...
Where can we find your performance? Tell me more ...
Your comment:
Please, log in to post your performance.