Artists by letter: A B C D E F G H I J K L M N O P Q R S T U V W X Y Z 0-9

 
Thats What You Get Tab
By-Francis
Location - Carmelite, Lucena City
Cp #- 09283150081
E-add- [email protected]  (friendster)add me!
School- Sacred Heart College


Thats What You Get Tab by Paramore :
RIOT ALBUM-That's What You Get


this is how they played it~~
http://www.youtube.com/watch?v=zsDoeX1dwQs

note-
2 tabs 
I-drop d
II-drop c#


Guitar1- {e b g d a D}
Guitar2- {e b g d a D}


Intro-



Guitar1

|-------------------------------------------------|
|-------------------------------------------------|
|-8-8-8------8-8-8------101010----12-12-12---10---|
|-6-6-6------6-6-6------8-8-8-----10-10-10---8----|2x
|-6-6-6------6-6-6------8-8-8-----10-10-10---8----|
|-6-6-6------6-6-6------8-8-8-----10-10-10---8----|



Guitar2

|-----------------------------------------------------|
|-----------------------------------------------------|
|--------------------------------------121212-10------|2x
|--------3h5---------5h8---------8h10--x-x-x--x-------|
|-3-3-3-------3-3-3-------5-5-5--------101010-8-------|
|-----------------------------------------------------|


Verse-



Guitar1 P.M.


|--------------------------------|
|--------------------------------|
|--------------------------------|
|-6-6-6--6-6-6---8-8-8---101010--|4x
|-6-6-6--6-6-6---8-8-8---101010--|
|-6-6-6--6-6-6---8-8-8---101010--|
  * * *  * * *   * * *   * * *



Guitar2

|---6---|---6---|----6----|---6-----|
|---6---|---6---|----6----|---6-----|
|---7---|---7---|----7----|---7-----|
|-------|-------|---------|---------|2x
|-------|-------|---------|---------|
|-------|-------|---------|---------|



Continued...


Guitar1

   
|-------------------------------------------------|
|-------------------------------------------------|
|-8-8-8------8-8-8------101010----12-12-12---10---|
|-6-6-6------6-6-6------8-8-8-----10-10-10---8----|2x
|-6-6-6------6-6-6------8-8-8-----10-10-10---8----|
|-6-6-6------6-6-6------8-8-8-----10-10-10---8----|



Guitar2


|-----------------------------------------------------|
|-----------------------------------------------------|
|-------------------------------------(121212-10)-----|2x
|--------3h5---------5h8---------8h10--x-x-x--x-------|
|-3-3-3-------3-3-3-------5-5-5--------101010-8-------|
|-----------------------------------------------------|

REPEAT Verse-





Pre-chorus

G1

|----|
|----|
|----|
|-1~-|
|-1~-|
|-1~-|



G2

|----|
|----|
|-8~-|
|-8~-|
|-6~-|
|----|





Chorus-
1.
Guitar1

|--------------------------------|
|--------------------------------|
|---------------6666--33333------|
|-66666--11111--6666--33333------|
|-66666--11111--3333--11111------|
|-66666--11111-------------------|



Guitar2



|-15~------15~-------------------|--15~------15~----13~-----(13~-)------|
|-----16~^------16~--15h16-15~---|-------16~^---16~---------------------|
|----------------------------15~-|-----------------------15~----15~^----|
|--------------------------------|--------------------------------------|
|--------------------------------|--------------------------------------|
|--------------------------------|--------------------------------------|

2.
GUITAR1

|--------------------------------|
|--------------------------------|
|----------------3333333333------|
|-66666--111111--3333333333------|
|-66666--111111--1111111111------|
|-66666--111111------------------|

GUITAR2

|-15~------15~-------------------|-13~--13~--13~-(13~)---|
|-----16~^------16~--15h16-15~---|-----------------------|
|----------------------------15~-|----15~--15~--15~-15~^-|
|--------------------------------|-----------------------|
|--------------------------------|-----------------------|
|--------------------------------|-----------------------|

3.
GUITAR1

|-------------------------|   
|-------------------------|   
|---5555555--3333333------|   
|---5555555--3333333------|2x
|---3333333--1111111------|   
|-------------------------|

GUITAR2
|-----------------------------------------------------------------------------|
|-----------------------------------------------------------------------------|
|-----------1212--1515--121212----------------------1212--1515-121212---------|
|-1313131717-------------------15151515--131313-1717-----------------13151515-|
|-----------------------------------------------------------------------------|
|-----------------------------------------------------------------------------|

4.
GUITAR1

|--------------------------------|
|--------------------------------|
|----------------3333333333------|
|-66666--111111--3333333333------|
|-66666--111111--1111111111------|
|-66666--111111------------------|

GUITAR2


|-15~------15~-------------------|-13~--13~--13~-(13~)---|
|-----16~^------16~--15h16-15~---|-----------------------|
|----------------------------15~-|----15~--15~--15~-15~^-|
|--------------------------------|-----------------------|
|--------------------------------|-----------------------|
|--------------------------------|-----------------------|





Interlude-



Guitar2


|-------------------------------------------------|
|-------------------------------------------------|
|-8-8-8------8-8-8------101010----12-12-12---10---|
|-6-6-6------6-6-6------8-8-8-----10-10-10---8----|2x
|-6-6-6------6-6-6------8-8-8-----10-10-10---8----|
|-6-6-6------6-6-6------8-8-8-----10-10-10---8----|



then...

do intro





repeat verse

Pre-chorus

Repeat Chorus


Verse-



Continued...


Chorus-



Drum beats then



|-----------------------------|
|-----------------------------|
|-----------------------------|
|--8-8-8-8-8-88888------------|
|--8-8-8-8-8-88888------------|
|--8-8-8-8-8-88888------------|
   * * * * * *   


Repeat chorus then



G1

|----------------------|
|----------------------|
|----------------------|
|-666-xxxx-666-xxxx-1~-|
|-666-xxxx-666-xxxx-1~-|
|-666-xxxx-666-xxxx-1~-|


G2
|-15~---13~------11~~------|
|-16~---x--------11~~------|
|-------15~----------------|
|--------------------------|
|--------------------------|
|--------------------------|


----------------------------------------------------------------------------
----------------------------------------------------------------------------

Guitar1- {eb bb gb db Ab Db}
Guitar2- {eb bb gb db Ab Db}


Intro-



Guitar1

   
|-------------------------------------------------|
|-------------------------------------------------|
|-9-9-9------9-9-9------111111----13-13-13---11---|
|-7-7-7------7-7-7------9-9-9-----11-11-11---9----|2x
|-7-7-7------7-7-7------9-9-9-----11-11-11---9----|
|-7-7-7------7-7-7------9-9-9-----11-11-11---9----|


Guitar2
|-----------------------------------------------------|
|-----------------------------------------------------|
|-------------------------------------------131313-11-|2x
|-------4h6------6h9----------9h11----------x-x-x--x--|
|-4-4-4-----4-4-4-----6-6-6-----------------111111-9--|
|-----------------------------------------------------|





Verse-



Guitar1 P.M.


|--------------------------------|
|--------------------------------|
|--------------------------------|
|-7-7-7--7-7-7---9-9-9---111111--|4x
|-7-7-7--7-7-7---9-9-9---111111--|
|-7-7-7--7-7-7---9-9-9---111111--|
  * * *  * * *   * * *   * * *



Guitar2(not sure}

|---7---|---7---|----7----|---7-----|
|---7---|---7---|----7----|---7-----|
|---8---|---8---|----8----|---8-----|
|-------|-------|---------|---------|2x
|-------|-------|---------|---------|
|-------|-------|---------|---------|



Continued...
GTrI
|-------------------------------------------------|
|-------------------------------------------------|
|-9-9-9------9-9-9------111111----13-13-13---11---|
|-7-7-7------7-7-7------9-9-9-----11-11-11---9----|2x
|-7-7-7------7-7-7------9-9-9-----11-11-11---9----|
|-7-7-7------7-7-7------9-9-9-----11-11-11---9----|

Guitar2


|-----------------------------------------------------|
|-----------------------------------------------------|
|-------------------------------------------131313-11-|2x
|-------4h6------6h9----------9h11----------x-x-x--x--|
|-4-4-4-----4-4-4-----6-6-6-----------------111111-9--|
|-----------------------------------------------------|

REPEAT Verse





Pre-chorus

G1

|-0--|
|-0--|
|-4~-|
|-2~-|
|-2~-|
|-2~-|



G2

|----|
|----|
|-9~-|
|-9~-|
|-7~-|
|----|





Chorus-

Guitar1

|--------------------------------|
|--------------------------------|
|---------------6666--44444------|
|-77777--22222--6666--44444------|
|-77777--22222--4444--22222------|
|-77777--22222-------------------|



Guitar2



|-16~------16~-------------------|--16~------16~-----14~------14~-------|
|-----17~-------17~--16h17-16----|-------17~-----17~--------------------|
|----------------------------16--|----------------------16~-------16~---|
|--------------------------------|--------------------------------------|
|--------------------------------|--------------------------------------|
|--------------------------------|--------------------------------------|

GUITAR1

|--------------------------------|
|--------------------------------|
|----------------4444444444------|
|-77777--222222--4444444444------|
|-77777--222222--2222222222------|
|-77777--222222------------------|

GUITAR2



|-16~------16~-------------------|--14~------14~----14~------14~--------|
|-----17~-------17~--16h17-16----|--------------------------------------|
|----------------------------16--|------16~-------16~----16~-------16~--|
|--------------------------------|--------------------------------------|
|--------------------------------|--------------------------------------|
|--------------------------------|--------------------------------------|


GUITAR1

|-------------------------|   
|-------------------------|   
|---6666666--4444444------|   
|---6666666--4444444------|2x
|---4444444--2222222------|   
|-------------------------|

GUITAR2(I CAN HEAR GUITAR 2 AT THIS PART...)
not sure of this tab..
|--------------------------------------------------------------------|
|--------------------------------------------------------------------|
|---------------------13-13----1616---13--13-13----------------------|
|--14-14-14--16-16--------------------------------16--16--16--16-----|
|--------------------------------------------------------------------|
|--------------------------------------------------------------------|


|--------------------------------------------------------------------|
|--------------------------------------------------------------------|
|---------------------13-13----1616---13--13-13----------------------|
|--14-14-14--16-16--------------------------------14--16--16--16-----|
|--------------------------------------------------------------------|
|--------------------------------------------------------------------|

GUITAR1
|--------------------------------|
|--------------------------------|
|----------------4444444444------|
|-77777--222222--4444444444------|
|-77777--222222--2222222222------|
|-77777--222222------------------|   



Guitar2
|-16~------16~-------------------|--14~------14~----14~------14~--------|
|-----17~-------17~--16h17-16----|--------------------------------------|
|----------------------------16--|------16~-------16~----16~-------16~--|
|--------------------------------|--------------------------------------|
|--------------------------------|--------------------------------------|
|--------------------------------|--------------------------------------|





Interlude-



Guitar2


|-------------------------------------------------|
|-------------------------------------------------|
|-9-9-9------9-9-9------111111----13-13-13---11---|
|-7-7-7------7-7-7------9-9-9-----11-11-11---9----|2x
|-7-7-7------7-7-7------9-9-9-----11-11-11---9----|
|-7-7-7------7-7-7------9-9-9-----11-11-11---9----|


then...
do intro




repeat verse

Pre-chorus

Repeat Chorus


Verse-



Continued...
Do intro





Chorus-



Drum beats then



|-----------------------------|
|-----------------------------|
|-----------------------------|
|--4-4-4-4-4-44444444---------|
|--2-2-2-2-2-22222222---------|
|-----------------------------|
   * * * * * *   


Repeat chorus then



G1

|-------------------0--|
|-------------------0--|
|-------------------4--|
|-777-xxxx-777-xxxx-2~-|
|-777-xxxx-777-xxxx-2~-|
|-777-xxxx-777-xxxx-2~-|


G2
|-16~---14~------12~~------|
|-17~---x--------12~~------|
|-x-----16~------x---------|
|--------------------------|
|--------------------------|
|--------------------------|


by [email protected]
hi! cordians!...BSN



 
 
Paramore - Thats What You Get Tab :: indexed at Ultimate Guitar.
Thats What You Get tabs @ 911Tabs

About the artist behind Thats What You Get Tab:

Paramore (IPA: /'pærəmɔər/) is an American rock band that formed in Franklin, Tennessee in 2004 consisting of Hayley Williams (lead vocals/keyboard), Josh Farro (lead guitar/backing vocals), Jeremy Davis (bass guitar), and Zac Farro (drums). The group released their debut album All We Know Is Falling in 2005, and their second album Riot! in 2007, which was certified gold in the US and the UK.

Indexed at Wikipedia.

Show us your talent, perform Thats What You Get Tab!

Here you can post a video or audio performance. Tell me more ...
Where can we find your performance? Tell me more ...
Your comment:
Please, log in to post your performance.