Artists by letter: A B C D E F G H I J K L M N O P Q R S T U V W X Y Z 0-9

For A Pessimist Im Pretty Optimistic Tab (ver 6) - Paramore


 
For A Pessimist Im Pretty Optimistic Tab
This is my first tab, it's in drop D, it's also half a step down, but that's optional.
This is just lead guitar (Josh Farro).
If there's anything wrong with it, please comment with corrections and I'll 
change it for you.

Intro; 

|---------------------------------------------------------------------|
|---------------------------------------------------------------------|
|-17171717-171716161616161616161616-12121212-121211111111111111111111-|
|---------------------------------------------------------------------|
|-15151515-151514141414141414141414-10101010-1010-9-9-9-9-9-9-9-9-9-9-|
|---------------------------------------------------------------------|

|---------------------------------------------------------------------|
|---------------------------------------------------------------------|
|-17171717-171716161616161616161616-/19-19-19-19-19-19-19-19-19-19-19-|
|---------------------------------------------------------------------|
|-15151515-151514141414141414141414-/17-17-17-17-17-17-17-17-17-17-17-|
|---------------------------------------------------------------------|

|---------------------------------------------------------------------|
|---------------------------------------------------------------------|
|-19-19-19-19-19-/19-19-19-19-19-19-19-19-19-19-19-19-19-19-19-19-----|
|---------------------------------------------------------------------|
|-17-17-17-17-17-/17-17-17-17-17-17-17-17-17-17-17-17-17-17-17-17-----|
|---------------------------------------------------------------------|

Verse 1;

'Just talk yourself up and tear yourself down.'
|----|
|----|
|-19~|
|----|
|-17~|
|----|

'You've hit your own wall, now find a way around.'
|----|
|----|
|-19~|
|----|
|-17~|
|----|

'Well what's the problem? You've got a lot of nerve.'
|-----------------------------------------0000/7777777----------------|
|-----------------------------------------0000/8888888----------------|
|---------------------------------------------------------------------|
|-55-5-55-555-555-5-77-777-777-777---------------------0--------------|
|-55-5-55-555-555-5-77-777-777-777\5-2-22--------------0--------------|
|-55-5-55-555-555-5-77-777-777-777\5-2-22--------------0--------------|

Pre-chorus;

'So what did you think I would say? You can't run a way.'
|--------12~----------------------------------------------------------|
|-----12~-------------------------------------------------------------|
|---------------------------------------------------------------------|
|-0-0-----------------------------------------------------------------|
|-0-0-----------------------------------------------------------------|
|-0-0-----------------------------------------------------------------|

'You can't run a way. So, what did you think I would say? You can't run a way.'
|---7~--|
|-7~----|
|-------|
|-------|
|-------|
|-------|

'You can't run a way. You wouldn't, no you can't run a way. You wouldn't.'
Harmonise all the way through

Chorus;

'I never wanted to say this. You never wanted to stay.'
|---------------------------------------------------------------------|
|---------------------------------------------------------------------|
|-9-9-9-9-11-11-11-11-121212121212121212-9-9-9-9-16-16-16-16-14-141414|
|---------------------------------------------------------------------|
|-7-7-7-7--9--9--9--9-101010101010101010-7-7-7-7-14-14-14-14-12-121212|
|---------------------------------------------------------------------|

|--------------|
|--------------|
|-14141414-----|
|--------------|
|-12121212-----|
|--------------|

'I put my faith in you, so much faith and then you just threw it away.'
|------------------------------------------------------------------|
|------------------------------------------------------------------|
|-9-9-9-9-11-11-11-11-12-12-12-12-12-12-121212-9-9-9-9-14-14-14-14-|
|------------------------------------------------------------------|
|-7-7-7-7--9--9--9--9-10-10-10-10-10-10-101010-7-7-7-7-12-12-12-12-|
|------------------------------------------------------------------|

|---------------|
|---------------|
|-121212127-7-7-|
|---------------|
|-101010105-5-5-|
|---------------|

(Only guitar 2 plays on 'You threw it away' the second time.)

Verse 2;

'I'm not so naive, my sorry eyes can see.'
|----|
|----|
|-19~|
|----|
|-17~|
|----|

'The way you fight shy of almost every thing.'
|----|
|----|
|-19~|
|----|
|-17~|
|----|

'Well if you give up, you'll get what you deserve.'
|-----------------------------------------0000/7777777----------------|
|-----------------------------------------0000/8888888----------------|
|---------------------------------------------------------------------|
|-55-5-55-555-555-5-77-777-777-777---------------------0--------------|
|-55-5-55-555-555-5-77-777-777-777\5-2-22--------------0--------------|
|-55-5-55-555-555-5-77-777-777-777\5-2-22--------------0--------------|

Pre-chorus;

'So what did you think I would say? You can't run a way.'
|--------12~----------------------------------------------------------|
|-----12~-------------------------------------------------------------|
|---------------------------------------------------------------------|
|-0-0-----------------------------------------------------------------|
|-0-0-----------------------------------------------------------------|
|-0-0-----------------------------------------------------------------|

'You can't run a way. So, what did you think I would say? You can't run a way.'
|---7~--|
|-7~----|
|-------|
|-------|
|-------|
|-------|

'You can't run a way. You wouldn't, no you can't run a way. You wouldn't.'
Harmonise all the way through

Chorus;

'I never wanted to say this. You never wanted to stay.'
|---------------------------------------------------------------------|
|---------------------------------------------------------------------|
|-9-9-9-9-11-11-11-11-121212121212121212-9-9-9-9-16-16-16-16-14-141414|
|---------------------------------------------------------------------|
|-7-7-7-7--9--9--9--9-101010101010101010-7-7-7-7-14-14-14-14-12-121212|
|---------------------------------------------------------------------|

|--------------|
|--------------|
|-14141414-----|
|--------------|
|-12121212-----|
|--------------|

'I put my faith in you, so much faith and then you just threw it away.'
|------------------------------------------------------------------|
|------------------------------------------------------------------|
|-9-9-9-9-11-11-11-11-12-12-12-12-12-12-121212-9-9-9-9-14-14-14-14-|
|------------------------------------------------------------------|
|-7-7-7-7--9--9--9--9-10-10-10-10-10-10-101010-7-7-7-7-12-12-12-12-|
|------------------------------------------------------------------|

|---------------|
|---------------|
|-121212127-7-7-|
|---------------|
|-101010105-5-5-|
|---------------|

Bridge;

'You were finished long before.'
|-----|
|-15~-|
|-----|
|-12~-|
|-----|
|-----|

Or, you could play guitar 2s part if youre playing it by yourself, it makes it sound fuller;
|-----------------------------------------------------------------|
|-----------------------------------------------------------------|
|-----------------------------------------------------------------|
|-----------------------------------------------------------------|
|---------------------------------3-3-3-3-2-2-2-2-0-0-0-0---------|
|-2-2-2-2-2-2-2-2-4-4-4-4-5-5-5-5-------------------------4-4-4-4-|
  . . . . . . . . . . . . . . . . . . . . . . . . . . . . . . . .

'We had even seen the start. Why don't you.'
|-----------------------------------------------------------------|
|-----------------------------------------------------------------|
|-----------------------------------------------------------------|
|-----------------------------------------------------------------|
|---------------------------------3-3-3-3-2-2-2-2-0-0-0-0---------|
|-1-1-1-1-2-2-2-2-4-4-4-4-5-5-5-5-------------------------4-4-4-4-|
  . . . . . . . . . . . . . . . . . . . . . . . . . . . . . . . .

'Stand up, be a man about it?.'
|-0-3-0---3-0---3-0---3-0---3-0---3-0---3-0---3-------------------|
|-----------------------------------------------------------------|
|-------0-----------0-----0-----4-----5-----5---0-2-4-2-----------|
|-----------------------------------------------------------------|
|-----------------------------------------------------------------|
|-----------------------------------------------------------------|

|---------------------|
|---------------------|
|---------------------|
|---------5-5-2-------|
|-1-2-5-5-3-2-0-5-----|
|-1-2-4-5-------4-----|

'Fight with your bare hands about it now.'
|-0-3-0---3-0---3-0---3-0---3-0---3-0---3-0---3-------------------|
|--------------------------------------------------------3--------|
|-------0-----------0-----0-----4-----5-----5---0-2-4-2-----------|
|-----------------------------------------------------------------|
|-----------------------------------------------------------------|
|-----------------------------------------------------------------|

|---------------------|
|---------------------|
|---------------------|
|---------5-5-2-------|
|-1-2-5-5-3-2-0-5-----|
|-1-2-4-5-------4-----|

Chorus;

'I never wanted to say this. You never wanted to stay. Well do you?'
|---------------------------------------------------------------------|
|---------------------------------------------------------------------|
|-9-9-9-9-11-11-11-11-121212121212121212-9-9-9-9-16-16-16-16-14-141414|
|---------------------------------------------------------------------|
|-7-7-7-7--9--9--9--9-101010101010101010-7-7-7-7-14-14-14-14-12-121212|
|---------------------------------------------------------------------|

|--------------|
|--------------|
|-14141414-----|
|--------------|
|-12121212-----|
|--------------|

'I put my faith in you, so much faith and then you just threw it away.'
|------------------------------------------------------------------|
|------------------------------------------------------------------|
|-9-9-9-9-11-11-11-11-12-12-12-12-12-12-121212-9-9-9-9-14-14-14-14-|
|------------------------------------------------------------------|
|-7-7-7-7--9--9--9--9-10-10-10-10-10-10-101010-7-7-7-7-12-12-12-12-|
|------------------------------------------------------------------|

|------------------|
|------------------|
|-1212121212121212-|
|------------------|
|-1010101010101010-|
|------------------|

'I never wanted to say this. You never wanted to stay.'
|---------------------------------------------------------------------|
|---------------------------------------------------------------------|
|-9-9-9-9-11-11-11-11-121212121212121212-9-9-9-9-16-16-16-16-14-141414|
|---------------------------------------------------------------------|
|-7-7-7-7--9--9--9--9-101010101010101010-7-7-7-7-14-14-14-14-12-121212|
|---------------------------------------------------------------------|

|--------------|
|--------------|
|-14141414-----|
|--------------|
|-12121212-----|
|--------------|

'I put my faith in you, so much faith and then you just threw it away.'
|------------------------------------------------------------------|
|------------------------------------------------------------------|
|-9-9-9-9-11-11-11-11-12-12-12-12-12-12-121212-9-9-9-9-14-14-14-14-|
|------------------------------------------------------------------|
|-7-7-7-7--9--9--9--9-10-10-10-10-10-10-101010-7-7-7-7-12-12-12-12-|
|------------------------------------------------------------------|

|------------------|
|------------------|
|-1212121212121212~|
|------------------|
|-1010101010101010~|
|------------------|


 
 
Paramore - For A Pessimist Im Pretty Optimistic Tab :: indexed at Ultimate Guitar.
For A Pessimist Im Pretty Optimistic tabs @ 911Tabs

About the artist behind For A Pessimist Im Pretty Optimistic Tab:

Paramore (IPA: /'pærəmɔər/) is an American rock band that formed in Franklin, Tennessee in 2004 consisting of Hayley Williams (lead vocals/keyboard), Josh Farro (lead guitar/backing vocals), Jeremy Davis (bass guitar), and Zac Farro (drums). The group released their debut album All We Know Is Falling in 2005, and their second album Riot! in 2007, which was certified gold in the US and the UK.

Indexed at Wikipedia.

Show us your talent, perform For A Pessimist Im Pretty Optimistic Tab!

Here you can post a video or audio performance. Tell me more ...
Where can we find your performance? Tell me more ...
Your comment:
Please, log in to post your performance.