Artists by letter: A B C D E F G H I J K L M N O P Q R S T U V W X Y Z 0-9

 
Take Me Back Tab
----------------------------------------------------------------------------
				TAKE ME BACK - Noiseworks
----------------------------------------------------------------------------

Tabbed by: Tim Norton  (10.5.09)
Email:	   [email protected]

Artist: Noiseworks
Song: 	Take me back
Album:	Noiseworks (1987) Australia.

Tuning: Standard (EADGBe)

Some people put some pretty good tabs for this great song on the net already, but they 
100% put together or not accurate. Not saying mine's 100% accurate, but it's very close 
not 100%, and my version has the intro, chords and guitar solo.
Enjoy.


INTRO:

Guitar 1:
e|-----|
B|-----|
G|-----|
D|--9--|Palm mute:
A|--7--|Repeated constantly over 2nd guitar
E|--0--|

Guitar 2:
e|--0---0--19-17--------------0-----7--5----19-17----|
B|--0---0--------17------3----0-------------------17-|
G|--9---7---------------------7----------------------|
D|--9---7---------------------7----------------------|
A|--7---5---------------------5----------------------|
E|--0------------------------------------------------|


Rhythym:       fill:

e|-0-----0-----0--0--0--0--0s-0-|
B|-0-----0-----0--0--0--0--0s-0-|
G|-9-----6-----8--9--8--6--4s-0-|
D|-9-----7-----9--9--9--7--4s-0-|
A|-7-----0-----7--7--7--0--0s-0-|
E|-0-----0-----0--0--0--0--0s-0-| X2


VERSE 1:

E                                 Asus2          Bsus2
You never expect it to be in your wildest dreams

E
So take a step backwards for a little while

        Asus2
You'll find it there


fill:

e|--0--0--0--0--0s-0-|
B|--0--0--0--0--0s-0-|
G|--8--9--8--6--4s-2-|
D|--9--9--9--7--4s-2-|
A|--7--7--7--0--0s-0-|
E|--0--0--0--0--0s-0-|

     Asus2
It's something that I can't explain

     Bsus2
So I remain trapped inside

      Asus2
Still holding strong

                    Bsus2   Dsus2
Still holding on to you, to you

CHORUS:

E               Bsus2                 Asus2
Take me back to you, it's been a long time

                  E              Bsus2
Although every night I think of you

                    Asus2
It's such a lonely life

fill:

e|--0--0--0--0--0s-0-|
B|--0--0--0--0--0s-0-|
G|--8--9--8--6--4s-0-|
D|--9--9--9--7--4s-0-|
A|--7--7--7--0--0s-0-|
E|--0--0--0--0--0s-0-|


VERSE 2: Same chords and fill as Verse 1:

I watched you wave goodbye as you drove away
I didn't know that it would be your last time with me
You said, life ain't worth living if nobody cared
You said that all the time, oh
I take a step back and see your staring eyes
I see you on the day you died

CHORUS:Same as previous.

E                Bsus2
Take me back to you,

E                Bsus2
Take me back to you.


GUITAR SOLO:

e||-------------------------------------------12-14--16-14-----------------|
B||----------------------------------------14--------------17-14-----------|
G||---11b-11b-11b-11b-11b-9-9h11-11-9-9---------------------------16-14-13-|
D||------------------------------------------------------------------------|
A||------------------------------------------------------------------------|
E||------------------------------------------------------------------------|

e|-----------------------------------12-12h14-12---12h14-16---12h14-|
B|---------12-12/14-12---12-12-12/14--------------------------------|
G|-11/13------------------------------------------------------------|
D|------------------------------------------------------------------|
A|------------------------------------------------------------------|
E|------------------------------------------------------------------|

e|-19-19-19-19-19-19-19\0--||
B|-------------------------||
G|-------------------------||
D|-------------------------||
A|-------------------------||
E|-------------------------||


(CHORUS)

E	        Bsus2
Take me back to you,

E	        Bsus2
take me back to you.

E (to end on)


THATS IT!!


CHORD CHART:

         E    Asus2      Bsus2*     Dsus2*

e|-------0------0--------2--(0)-----5--(0)--|
B|-------0------0--------2--(0)-----5--(0)--|
G|-------1------2--------4--(4)-----7--(7)--|
D|-------2------2--------4--(4)-----7--(7)--|
A|-------2------0--------2--(2)-----5--(5)--|
E|-------0----------------------------------|

*Although, not barring the Bsus2 and Dsus2 (playing them open) still sounds good.

Key:

| /  slide up
| \  slide down
| h  hammer-on
| p  pull-off
| ~  vibrato
| +  harmonic
| x  Mute note
=================================================================================================

 
 
Noiseworks - Take Me Back Tab :: indexed at Ultimate Guitar.
Take Me Back tabs @ 911Tabs
People who played Noiseworks - Take Me Back Tab also played these songs by Noiseworks:
Take Me Back Chords, Take Me Back Chords, Touch Chords, No Lies Chords, Take Me Back, Take Me Back Ukulele Chords

Quick tip, so you can enjoy Take Me Back Tab even more:

After the registration (which takes just 10 seconds, remember?) you will be able to use your profile - your very own piece of YourChords.com.

Show us your talent, perform Take Me Back Tab!

Here you can post a video or audio performance. Tell me more ...
Where can we find your performance? Tell me more ...
Your comment:
Please, log in to post your performance.