Artists by letter: A B C D E F G H I J K L M N O P Q R S T U V W X Y Z 0-9

 
Lover Tab
Artist: Nevertheless
Song: Lover
Tabber: Mark Daniel Cerezo
Email: [email protected]
Tuning: Standard (EADGBe)

This is a great song so I decided to tab this one this is my first tab and I hope you
enjoy this one I'm sure that this tab is very accurate but if you have comments and
to this tab just email me at my email add I hope you guys enjoy this one this song is 
to my band standupon to Christopher Estaniel on vocals, Jeptah Cabigon on bass, Jr on
MacJeff Pattaui on drums, and specially me on Lead  pls rate my tab Thank you and 
Let us keep praising our Lord God 

Verse:

e|----------------------------------|
B|----------------------------------|
G|----------------------------------|
D|---7-7-7-7-7-7-0-0-0-9-9-9---| x8
A|---5-5-5-9-9-9--0-0-0-10-10-10--|
E|----------------------------------|
  "palm muted"

Verse 1

I am a lover. I am a shame.
I am appalled by what I fame.
I am a lover, but I've had my share of
Flirting with the darkest affairs.

Chorus: D G Bm A

Chord Diagram:


     D            G            Bm           A
e|---x---|   e|---x---|   e|---x---|   e|---x---|
B|---3---|   B|---3---|   B|---3---|   B|---2---|
G|---2---|   G|---0---|   G|---4---|   G|---2---|
D|---0---|   D|---0---|   D|---4---|   D|---2---|
A|---0---|   A|---x---|   A|---2---|   A|---0---|
E|---x---|   E|---3---|   E|---x---|   E|---x---|

Chorus:

D                 G                      Bm
you can find me here my head against the wall

             A                      D
lost in my regrets and every time I fall

      G              Bm               A
You catch me in your hands you circle me like a wedding band


Play Verse along with this solo:

Guitar 1
e|----------------------------------|
B|----------------------------------|
G|----------------------------------|
D|---7-7-7-7-7-7-0-0-0-9-9-9---|
A|---5-5-5-9-9-9--0-0-0-10-10-10--|
E|----------------------------------|

Guitar 2
e|-------5-----------------------------|
B|------------7h8-7--------7-----------|
G|---6h7---7--------7--------7----7/9--|
D|----------------------7------7-------|
A|-------------------------------------|
E|-------------------------------------|

  -------5-----------------------------|
  ------------7h8-7--------7-----------|
  ---6h7---7--------7--------7---------|
  ----------------------7------7-------|
  -------------------------------------|
  -------------------------------------|


Verse 2


e|----------------------------------|
B|----------------------------------|
G|----------------------------------|
D|---7-7-7-7-7-7-0-0-0-9-9-9---| x8
A|---5-5-5-9-9-9--0-0-0-10-10-10--|
E|----------------------------------|
  "palm muted"


I have a lover, faithful and true
Cares for me in all that I do.
I have a lover.
My song he has sung with love on
his lips and grace on his tongue.


Chorus:

D                 G                      Bm
you can find me here my head against the wall

             A                      D
lost in my regrets and every time I fall

      G              Bm               A                   D
You catch me in your hands you circle me like a wedding band

                   G                      Bm
A promise from Heaven, a promise from you,

            A
A promise to love, I will hold


e|-----------------|
B|-----------------|
G|-----------------|
D|---0--7--7/9-----|
A|---0--9--5/10----|
E|-----------------|
  Onto.....


G            A                  Bm
God of new beginnings, to you I cry,

                D                     G
Teach me how to love and teach me how to die

                      A                         Bm          D
In death there's forgiveness, and forgiveness calls on new life

On new life.....

Bridge:

Guitar 1
e|-------------------------------------------------------|
B|-------------------------------------------------------|
G|-------------------------------------------------------|
D|--5-5-5-5------7-7-7-7------9-9-9-9------12-12-12-12---| x4
A|--5-5-5-5-x3---7-7-7-7-x3---9-9-9-9-x3---12-12-12-12-x3|
E|--3-3-3-3------5-5-5-5------7-7-7-7------10-10-10-10---|
  "palm muted"


Guitar 2 and solo

e|--------------------------------------|
B|--------3------3-----3-----3-----3----|
G|------6---6-------6-----6-----6----x4-|
D|---7---------7------7-----7-----7----|
A|--------------------------------------|
E|--------------------------------------|

-------5---------------------------------|
------------7h8-7--------7---------------|
---6h7---7--------7--------7----7/9--7---|
----------------------7------7---------7-|
-----------------------------------------|
-----------------------------------------|

-------5---------------------------------|
------------7h8-7--------7---------------|
---6h7---7--------7--------7----7/9/11---|
----------------------7------7-----------|
-----------------------------------------|
-----------------------------------------|

-------5---------------------------------|
------------7h8-7--------7---------------|
---6h7---7--------7--------7----7/9--7---|
----------------------7------7---------7-|
-----------------------------------------|
-----------------------------------------|

-------5--------------------------------|
------------7h8-7--------7-----7--------|
---6h7---7--------7--------7-----7---7--|
----------------------7------7-----7----|
----------------------------------------|
----------------------------------------|

----------------------------------------|
----------------------------------------|
---6h77-7-6\4-----7+------------------|  "+ = Harmonics"
-----------------7--7+------------------|
----------------------------------------|
----------------------------------------|


D                 G                      Bm
you can find me here my head against the wall

             A                      D
lost in my regrets and every time I fall

      G              Bm               A                   D
You catch me in your hands you circle me like a wedding band

                   G                      Bm
A promise from Heaven, a promise from you,

            A
A promise to love, I will hold onto....


note: pls listen to the song while studying this tab...Thanks!!!!
(//_n)....pls rate this tab and leave any comments or suggestions....
Godbless!!!!!!!!!

 
 
Nevertheless - Lover Tab :: indexed at Ultimate Guitar.
Lover tabs @ 911Tabs

About the artist behind Lover Tab:

Nevertheless is a Christian power-pop band from Chattanooga, Tennessee. Their song "Live Like We're Alive" reached the top 5 of the R&R Christian Rock Chart.[1], Their song "The Real," was played on Contemporary Christian Music radio stations, peaking in the Top 10 on radio stations thoroughout the United States.[2]

The band has toured with many other contemporaries from the Christian rock scene, including Superchick, Skillet, Hawk Nelson, Falling Up, and Number One Gun.

Indexed at Wikipedia.

Show us your talent, perform Lover Tab!

Here you can post a video or audio performance. Tell me more ...
Where can we find your performance? Tell me more ...
Your comment:
Please, log in to post your performance.