Artists by letter: A B C D E F G H I J K L M N O P Q R S T U V W X Y Z 0-9

 
You Wont Relent Tab

Guitar 1
e|-----------------------------------------------------------------------|
B|----------4--5--4---------------------0-H-2-0--------------------------|
G|-------6-----------6---------------2-----------------------------------|
D|----6-----------------6---------2----------------6--4--2---------------|
A|-4---------------------------0------------------------------2-S-4------|
E|----------------------------------------------0---0--0---0-------------|

Guitar 2
e|-----0-2-4-2-0-------0-2-4---------------------------------------------|
B|-2-4-----------4-2-4----------9---7---5-S--7---------------------------|
G|------------------------------9---6---6-S--6---------------------------|
D|-----------------------------------------------------------------------|
A|-----------------------------------------------------------------------|
E|-----------------------------------------------------------------------|


Chords
C sharp,A,E, F sharp 

Bass
G|--------------------------4--6-----------------------------------------|
D|-----------------------------------------------------------------------|
A|---4-4-4-4-4-4-4-4------------------6--4--2----------------------------|
E|-------------------5-5-5--------0-----------2--4-----------------------|


A great song I hope you liked my tab send me a message if you see any problems with it 
thanks steaklover 


 
 
Misty Edwards - You Wont Relent Tab :: indexed at Ultimate Guitar.
You Wont Relent tabs @ 911Tabs

Quick tip, so you can enjoy You Wont Relent Tab even more:

If you don't really know how to deal with "Absus4" chord and his equally confusing brothers, just put the mouse cursor over them and you will be shown a helpful chord diagram.

Show us your talent, perform You Wont Relent Tab!

Here you can post a video or audio performance. Tell me more ...
Where can we find your performance? Tell me more ...
Your comment:
Please, log in to post your performance.