Artists by letter: A B C D E F G H I J K L M N O P Q R S T U V W X Y Z 0-9

 
Cliche - For My Own Tab
Verse x3
E----------------------------------------|
B----------------------------------------|
G----------------------------------------|
D-99999999-22222222-66666666-2222--------|
A-99999999-22222222-66666666-2222-/676---|
E-77777777-00000000-44444444-0000--------|

Pre-Chorus (I won't talk to you no more...)x1
E------------------------------------------------------------|
B------------------------------------------------------------|
G------------------------------------------------------------|
D-99999999-22222222-66666666-2222222222222222-44444444-------|
A-99999999-22222222-66666666-2222222222222222-44444444-------|
E-77777777-00000000-44444444-0000000000000000-22222222-------|

Chorus x1
E-----------------------------------------------------------|
B-----------------------------------------------------------|
G----------99999~------------999-9-999----------------------|
D-99999~---99999~---66666~---999-9-999-2222-4444-9~---------|
A-99999~---77777~---66666~---777-7-777-2222-4444-9~---------|
E-77777~------------44444~-------------0000-2222-7~---------|

Verse x2
E----------------------------------------|
B----------------------------------------|
G----------------------------------------|
D-99999999-22222222-66666666-2222--------|
A-99999999-22222222-66666666-2222-/676---|
E-77777777-00000000-44444444-0000--------|

Pre-Chorus (I won't talk to you no more...)x1
E------------------------------------------------------------|
B------------------------------------------------------------|
G------------------------------------------------------------|
D-99999999-22222222-66666666-2222222222222222-44444444-------|
A-99999999-22222222-66666666-2222222222222222-44444444-------|
E-77777777-00000000-44444444-0000000000000000-22222222-------|

Chorus x2
E-----------------------------------------------------------|
B-----------------------------------------------------------|
G----------99999~------------999-9-999----------------------|
D-99999~---99999~---66666~---999-9-999-2222-4444-9~---------|
A-99999~---77777~---66666~---777-7-777-2222-4444-9~---------|
E-77777~------------44444~-------------0000-2222-7~---------|

Bridge x2 (first open, then alternate palm mute 2nd time)
E---------------------------------------------------------|
B---------------------------------------------------------|
G---------------------------------------------------------|
D-99999999999999999999999988888889------------------------|
A-99999999999999999999999988888889------------------------|
E-77777777777777777777777766666667------------------------|

Chorus x2
E-----------------------------------------------------------|
B-----------------------------------------------------------|
G----------99999~------------999-9-999----------------------|
D-99999~---99999~---66666~---999-9-999-2222-4444-9~---------|
A-99999~---77777~---66666~---777-7-777-2222-4444-9~---------|
E-77777~------------44444~-------------0000-2222-7~---------|

 
 
Misc Unsigned Bands - Cliche - For My Own Tab :: indexed at Ultimate Guitar.
Cliche - For My Own tabs @ 911Tabs

Quick tip, so you can enjoy Cliche - For My Own Tab even more:

If you spend just 10 seconds to register, you will be able to comment on all the chords and tabs and rate them. You will as well be able to comment on videos of your fellow guitarists and give them ratings from 1 to 5 ... And - of course - you can share your own videos with them and see what they think of you. :)
Click here to join us!

Show us your talent, perform Cliche - For My Own Tab!

Here you can post a video or audio performance. Tell me more ...
Where can we find your performance? Tell me more ...
Your comment:
Please, log in to post your performance.