Artists by letter: A B C D E F G H I J K L M N O P Q R S T U V W X Y Z 0-9

Hatikva Israeli National Anthem Tab (ver 4) - Misc Traditional


 
Hatikva Israeli National Anthem Tab
Hatika-Israeli National Anthem
Tabbed by: Titani
E-mail: [email protected]
Tuning: Standard (eBGDAE)

All the other ones that are posted here are accurate and good, but they are a harder 
of a much simpler version. This version uses only the last 4 strings, and the first 3 frets.
So again, DON'T PANIC. This Is Not A Bass Tab. It just uses the last four strings of a 
guitar, and it can be played with a classic, electric and acoustic guitars.

G|------------|------2----|-------------------|
D|------0-2-2-|-3-2-3-2-2-|-0-0-0-------------|
A|-0-2-3---0-0|--------0-0|------3-3-2-0-2-3-0|
E|------------|-----------|-------------------|

Play twice, but at the beginning of the second time, use an open E.


G|--2-2-2-0-2-0---|
D|-------------3-2|      x2
A|-0--------------|
E|----------------|


G|-0-0-0---------0----|--------------------|
D|----------0-2-3-2-0-|-0-0-0--------------|
A|-------3-3---------3|-------3-3-2-0-2-3-0|
E|--------------------|--------------------|

G|---------------0----|--------------------|
D|-0-0-0----0-2-3-2-0-|-0-0-0--------------|
A|-------3-3---------3|-------3-3-2-0-2-3-0|
E|--------------------|--------------------|

Have fun! :)

 
 
Misc Traditional - Hatikva Israeli National Anthem Tab :: indexed at Ultimate Guitar.
Hatikva Israeli National Anthem tabs @ 911Tabs

Quick tip, so you can enjoy Hatikva Israeli National Anthem Tab even more:

You might want to transpose the song if it is too high or too low for you to sing. Just click the desired option while playing a song and all the chords will automatically be transponded into a new key.

Show us your talent, perform Hatikva Israeli National Anthem Tab!

Here you can post a video or audio performance. Tell me more ...
Where can we find your performance? Tell me more ...
Your comment:
Please, log in to post your performance.