Artists by letter: A B C D E F G H I J K L M N O P Q R S T U V W X Y Z 0-9

 
He Films The Clouds Bass Tab
Maybeshewill - He Films The Clouds | Tabbed by Bobbyroana ([email protected])
http://www.maybeshewill.net/site/

Bass starts at: 0:45

G|--------------------------------------------------------------|A
D|------------------------------------------4-5h-4--------------|
A|3-3r-3-3-2-------------------10h-9-/5-5r-5--------------------|
E|-----------0-0r-0-0-3-8-8r-8----------------------------------|


G|--------------------------------------------------------------|B
D|--------------------------------------------------------------|
A|3-3r-3-3-2-------------------10h-9-/5-5r-5-5------------------|
E|-----------0-0r-0-0-3-8-8r-8----------------------------------|


Play A then B after the break play this:
(1*) = Slide from 1, without playing it

G|--------------------------------------------------------------|
D|--------------------------------------------------------------|
A|3-3-3-3-3-3-3-----------------5-5-5-5-5-1*/5-5-5-5-5-5-5-5----|
E|---------------0-0-0-0-0-0-0----------------------------------|

G|--------------------------------------------------------------|
D|--------------------------------------------------------------|
A|3-3-3-3-3-3-3---------------5-5-5-5-5-1*/5-5-5-5-5-5-5-5--3r--|
E|---------------0-0-0-0-0-0-0----------------------------------|

Maybeshewill - He Films The Clouds | Tabbed by Bobbyroana ([email protected])
Tabbed by Bobbyroana ([email protected])

 
 
Maybeshewill - He Films The Clouds Bass Tab :: indexed at Ultimate Guitar.
He Films The Clouds Bass tabs @ 911Tabs
People who played Maybeshewill - He Films The Clouds Bass Tab also played these songs by Maybeshewill:
Transmission One Bass Tab, He Films The Clouds Part 2 Chords, Red Paper Lanterns Tab, He Films The Clouds Part 2

Quick tip, so you can enjoy He Films The Clouds Bass Tab even more:

If you don't really know how to deal with "Absus4" chord and his equally confusing brothers, just put the mouse cursor over them and you will be shown a helpful chord diagram.

Show us your talent, perform He Films The Clouds Bass Tab!

Here you can post a video or audio performance. Tell me more ...
Where can we find your performance? Tell me more ...
Your comment:
Please, log in to post your performance.