Artists by letter: A B C D E F G H I J K L M N O P Q R S T U V W X Y Z 0-9

 
All I Really Want Tab
Tuning: Standard

Intro:

e|----0-0---0----0-0---0----0-0---0---0-0--0-----|
B|-----0-0--------0-0--------0-0-------0-0-------|
G|-----------------------------------------------|
D|--14----14---13----13---11----11---9----9------|
A|-----------------------------------------------|
E|-----------------------------------------------|

e|---0-0--0---0-0--0-----0-0--0-----0-0---0------|
B|----0-0------0-0--------0-0--------0-----------|
G|-----------------------------------------------|
D|--7----7---6----6--6/7----7---7/9-----9-------|
A|-----------------------------------------------|
E|-----------------------------------------------| x2

Verse:

    Lord, I love the way You love me
e|----0-0---0----0-0---0----0-0---0----0-0--0-0--|
B|-----0-0--------0-0--------0-0--------0----0---|
G|-----------------------------------------------|
D|--14----14---13----13---14----14---14---13-----|
A|-----------------------------------------------|
E|-----------------------------------------------|

    And how you move me deep within
e|----0-0---0---0-0--0-----0-0--0---0-0--0-------|
B|-----0-0-------0-0--------0-0------0-0---------|
G|-----------------------------------------------|
D|--11----11---7----7---7/9----9---9----9--------|
A|-----------------------------------------------|
E|-----------------------------------------------|

    Lord, I love the way you hold me, and draw
e|----0-0---0----0-0---0----0-0---0---0-0--0-----|
B|-----0-0--------0-0--------0-0-------0-0-------|
G|-----------------------------------------------|
D|--14----14---13----13---14----14---9----9------|
A|-----------------------------------------------|
E|-----------------------------------------------|

    me into You.     wo-ah
e|---0-0--0---0-0--0-----0-0--0---0-0--0---------|
B|----0-0------0-0--------0-0------0-0-----------|
G|-----------------------------------------------|
D|--7----7---7----7--7/9----9---9----9----------|
A|-----------------------------------------------|
E|-----------------------------------------------|

  Lord, I love the way You bless me,
  And look into my heart.
  Lord I love the way You lead me,
  Right into your arms.    Wo-ah

Chorus:

  Here the bassist simply plays:
G|-----------------------------------------------|
D|--14----13----11---9----7----6----7----9------|
A|-----------------------------------------------|
E|-----------------------------------------------| x2

While the lead guitar plays:

    God, I praise Thee, You amaze me.
e|--0------0------------0----0-------------------|
B|--0------0------------0----0-------------------|
G|--9------4------------6----9-------------------|
D|--9------4-----------6----9-------------------|
A|--7------2------------4----7-------------------|
E|-----------------------------------------------|

    Take me life and let Your light shine through.
e|--0-------0--------0--------------------0------|
B|--0-------0--------0--------------------0------|
G|--6-------4--------2--------------------4------|
D|--6-------4-------2--------------------4------|
A|--4-------2--------0--------------------2------|
E|-----------------------------------------------|

    Jesus, Savior, Friend of Sinners
e|--0------0-------0-----------------------------|
B|--0------0-------0-----------------------------|
G|--9------4-------6-----------------------------|
D|--9------4-------6-----------------------------|
A|--7------2-------4-----------------------------|
E|-----------------------------------------------|

    Fill me up, Cause all I really want I more of You.
e|--0-------0---------0------------0-------------|
B|--0-------0---------0------------0-------------|
G|--6-------4---------2------------4-------------|
D|--6-------4--------2------------4-------------|
A|--4-------2---------0------------2-------------|
E|-----------------------------------------------|

    Nuh-nuh-nuh-nuh-nuh  Ooooh-ooooh-oh-oh-ooh-oh-oh
e|----0-0---0----0-0---0----0-0---0---0-0--0-----|
B|-----0-0--------0-0--------0-0-------0-0-------|
G|-----------------------------------------------|
D|--14----14---13----13---11----11---9----9------|
A|-----------------------------------------------|
E|-----------------------------------------------|
    Oh-oh   Wo-ah
e|---0-0--0---0-0--0-----0-0--0-----0-0---0------|
B|----0-0------0-0--------0-0--------0-----------|
G|-----------------------------------------------|
D|--7----7---6----6--6/7----7---7/9-----9-------|
A|-----------------------------------------------|
E|-----------------------------------------------|

(Verse)
(Chorus)

Bridge:



    La-duh-da-duh-da-duh-du-ah-daa.
e|-----0----0----0----0----0----0----0----0------|
B|------0----0----0----0----0----0----0----0-----|
G|-----------------------------------------------|
D|--9-9--9-9--9-9--9-9--9-9--9-9--9-9--9-9-------|
A|-----------------------------------------------|
E|-----------------------------------------------|

    Lord, I love You more than ever before.
e|-----0----0----0----0----0----0----0---0-------|
B|------0----0----0----0----0----0----0--0-------|
G|---------------------------------------9-------|
D|--9-9--9-9--9-9--9-9--9-9--9-9--9-9----9-------|
A|---------------------------------------7-------|
E|-----------------------------------------------|

(Chorus) x2

Strum through chorus until end.

 
 
Lincoln Brewster - All I Really Want Tab :: indexed at Ultimate Guitar.
All I Really Want tabs @ 911Tabs

About the artist behind All I Really Want Tab:

Lincoln Brewster (born July 30, 1971 in Fairbanks, Alaska) is a Christian music artist and pastor. A multi-talented guitarist, singer, and songwriter, Brewster became a sought-after session guitarist in the early 90s.

Indexed at Wikipedia.

Show us your talent, perform All I Really Want Tab!

Here you can post a video or audio performance. Tell me more ...
Where can we find your performance? Tell me more ...
Your comment:
Please, log in to post your performance.