Artists by letter: A B C D E F G H I J K L M N O P Q R S T U V W X Y Z 0-9

 
How High The Moon Tab
-------------------------------------------------------------------------------
		  How High The Moon-Les Paul& MARY FORD
------------------------------------------------------------------------------
Tabbed by: dwarfcar21
Email:[email protected]

It took me awhile to make this tab with. Fool with the sound a little bit. IF you play 
just straight up it may not sound the best. Please  I put a lot of effort into this tab  
you criticize me make your tab of this. Hope you Enjoy! And remember when you 
play and if a note doesn't sound right just NICELY post a correction. This is all ear transcribed.

Tuning: Standard with a clean and dry sound.

E|-17x17-17x17-17x17-17-|
B|-14x14-14x14-14x14-14-|
G|-14x14-14x14-14x14-14-|
D|-14x14-17x17-16x16-15-|
A|----------------------|
E|----------------------|

E|-20b-------------------------|
B|-19b-------------------------|
G|-----------------------------|
D|-----------------------------|
A|-----------------------------|
E|-----------------------------|

E|-17x17-17x17-17x17-17-|
B|-14x14-14x14-14x14-14-|
G|-14x14-14x14-14x14-14-|
D|-14x14-17x17-16x16-15-|
A|----------------------|
E|----------------------|

E|-14\--14\------------|
B|-14\--14\------------|
G]-14\--14\------------|
D]-14\--14\------------|
A|---------------------|
E|---------------------|

Rhythm : This gets a bit tricky. He scratches around a lot here so I'm just going 
to add 
scratches where I think it should go. Remember to use effects(just a little .. don't 
to drown out Les' Sound) This is a second guitar. Play this through the whole 
song. There is also a chord progression on the tape he used to play the 
background. The chord are at the bottom.

e|-----------------------------------------------------------------------------------|
B|-----------------------------------------------------------------------------------|
G|-----x-x-x---x---------------------------------------------------------------------|
D|-----x-x-x-7-x---------------------------------------------------------------------|
A|-----x-x-x-8-x---------------------------------------------------------------------|
E|-----------------------------------------------------------------------------------|

Les' Part: He plays this during the other part listen to song for timing.*THS IS NOT THE 
THAT REPEATS!!!!* NOTE* THE  "|" stands for the end of that little beat. Listen to the 
and you'll understand.

e|-----x-5/0--|-------------|-3-3-|----------------|----3-3-------------------------|
B|------------|---8-x-8-----|-3-3-|-----8-8--8-----|--x-3-3-------------------------|
G|------------|---7-x-7-----|-----|-----7-7--7-----|--x-----------------------------|
D|------------|---8-x-8-----|-----|-----8-8--8-----|--x-----------------------------|
A|------------|-------------|-----|----------------|--------------------------------|
E|------------|-------------|-----|----------------|--------------------------------|

e|----------|-----------------------------------------------------------------------|
B|---17b----|-------11------11-11-11-11-----11----14b-------8-8h11b-----------------|
G|----------|----------10---------------------10------------------------------------|
D|----------|-----------------------------------------------------------------------|
A|----------|-----------------------------------------------------------------------|
E|----------|-----------------------------------------------------------------------|
The 2nd section is palm muted.

e|---------------------3-3---3h5-3h5p4p3--------------------------------------------|
B|---11b-11b/0---------5----------------------14-13p11-14-13p11---------------------|
G|----------------------------------------------------------------------------------|
D|----------------------------------------------------------------------------------|
A|----------------------------------------------------------------------------------|
E|----------------------------------------------------------------------------------|
also palm muted.

e|----------------------------------------------------------------------------------|
B|-14-13p11-14-13p11-14-13p11-14/0----14~~-14~~--14-14-14---------------------------|
G|-------------------------------------------------------------------0--0-----------|
D|----------------------------------------------------------------------------------|
A|----------------------------------------------------------------------------------|
E|----------------------------------------------------------------------------------|

e|-14b--14-14-----------------------------------------------------------------------|
B|------------------------8--8-8-----15b-----13-13-13-13b-----------7---------------|
G|------------------------7--7-7-------------14-14-1414b----/8-/9--8---------------|
D|------------------------8--8-8-------------------------------------------7--------|
A|----------------------------------------------------------------------------------|
E|----------------------------------------------------------------------------------|

e|----------------------------------------------------------------------------------|
B|----/4--/7-----10/18---18p15/1418p15/1418p15/14-18p15/14------------------------|
G|----------------------------------------------------------------------------------|
D|----------------------------------------------------------------------------------|
A|----------------------------------------------------------------------------------|
E|----------------------------------------------------------------------------------|

e|----------------------------------------------------------------------------------|
B|-18p15/1418p15/14----18p15/1418p15/1418----------------------------------------|
G|----------------------------------------------------------------------------------|
D|----------------------------------------------------------------------------------|
A|----------------------------------------------------------------------------------|
E|----------------------------------------------------------------------------------|

Really Old bluesy tune.(EFFECTS)

e|----0---3--0-5-0-3--0--5---------------------------------------------------------|
B|----0---3--0-5-0-3--0--5---------3-3-3---3---------------------------------------|
G|-----------------------------------4-4h5-44h5-------5h7-------------------------|
D|---------------------------------------------------------------------------------|
A|---------------------------------------------------------------------------------|
E|---------------------------------------------------------------------------------|x2

e|----------------------------------------------------------15b---10--8------------|
B|----8--8---8-8---8-x----------------------------------------------10--8----------|
G|----7--7---7-7---7-x-------------------------------------------------------------|
D|----8--8---8-8---8-x----------------12--12--12--12-------------------------------|
A|------------------------------------13--13--13--13-------------------------------|
E|------------------------------------12--12--12--12-------------------------------|

Take your left pointer finger and slid it across the top of the low e form the 5th fret 
the 1st real fast. Then pause
e|---------------------------------------------------------------------------------|
B|---------------------------------------------------------------------------------|
G|---------------------------------------------------------------------------------|
D|---------------------------------------------------------------------------------|
A|---------------------------------------------------------------------------------|
E|--5-FINGER-0---------------------------------------------------------------------|

e|--------------------------------------------------------------------------------------|
B|--------------------------------------------------------------------------------------|
G|-----x-x-19-19----18-18----18-18----18-18---------------------------------------------|
D|-----x-x-20-20----20-20----19-19----18-18------------------16\0-----------------------|
A|---------------------------------------------------------------------------16h17/18\0-|
E|--------------------------------------------------------------21----------------------|

Chords+Lyrics:

A7                Dm7                  Dm7    G7
Somewhere there's music, how faint the tune?
                  Cm7                  Cm7    F7
Somewhere there's heaven, how high the moon?
Bb7        Em(b5)            A7      Am7      Em7(b5)
There is no moon above when love is far away too,
     A7       D9          Em7      A7    Fm7    F7  Em7
'Til it comes true...that you love me as I love you.
    Em7   A7      Dm7                   Dm7   G7
Somewhere there's music...how near, how far?
                  Cm7                     Cm7  F7
Somewhere there's heaven...it's where you are.
    Bb      Em7(b5)               A7                   Dm7
The darkest night would shine if you would come to me soon,
 A7(b9)      Fm7       F7       Em         Em7  A7(b9) D6
Until you will, how still my heart, how high the moon?

Instrumental:
    Em7   A7      Dm7                    Dm7   G7
Somewhere there's music... how near, how far?
                  Cm7                    Cm7  F7
Somewhere there's heaven, it's where you are.
    Bb      Em7(b5)               A7                   Dm7
The darkest night would shine if you would come to me soon,
 A7(b9)      Fm7                Em         Em7  A7(b9) D6
Until you will, how still my heart, how high the moon.


| b bend
| /  slide up
| \  slide down
| h  hammer-on
| p  pull-off
| ~  vibrato
| +  harmonic
| x  Mute note/Scratch
===============================================================================


 
 
Les Paul And Mary Ford - How High The Moon Tab :: indexed at Ultimate Guitar.
How High The Moon tabs @ 911Tabs

Quick tip, so you can enjoy How High The Moon Tab even more:

If you spend just 10 seconds to register, you will be able to comment on all the chords and tabs and rate them. You will as well be able to comment on videos of your fellow guitarists and give them ratings from 1 to 5 ... And - of course - you can share your own videos with them and see what they think of you. :)
Click here to join us!

Show us your talent, perform How High The Moon Tab!

Here you can post a video or audio performance. Tell me more ...
Where can we find your performance? Tell me more ...
Your comment:
Please, log in to post your performance.