Artists by letter: A B C D E F G H I J K L M N O P Q R S T U V W X Y Z 0-9

 
Hourglass Tab
#----------------------------------PLEASE NOTE---------------------------------#
#This file is the author's own work and represents their interpretation of the #
#song. You may only use this file for private study, scholarship, or research. #
#------------------------------------------------------------------------------##

                                    HOURGLASS
                           As recorded by Lamb of God
                     (From the 2004 Album Ashes Of The Wake)

Words by Randy Blythe
Music by Lamb of God

Tabbed by: Chaz

Gtr I (D A D G B E) - 'Willie Adler'
Gtr II (D A D G B E) - 'Mark Morton'

 almost everything in this song is 100% correct, including the vomit riff, ill 
gaurantee it, its just 1 or 2 of the fills that are wrong. 
Enjoy!

  Q=200
   4/4
    Gtrs I, II
    PM--------|     PM--|        PM--|
    S S E S S E E E S S E   E  E S S E E E E E
||------------------------|-----------------------|
||o-----------------------|-----------------------|
||------------------------|-----------------------|
||------------------------|-----------------------|
||o---------7h8-----8h10--|-----------------------|
||--000-000-----000-------|-000-3-7-6-2-----------|
    *** ***     ***         ***

  PM--------|     PM--|          PM--|
  S S E S S E E E S S E     E  E S S E   E E  E  E
|------------------------|----------------------------|
|------------------------|----------10-9--------------|
|------------------------|-----10-9-------------------|
|------------------------|----------------------------|
|---------7h8-----8h12---|----------------------------|
|-000-000-----000--------|-000------------------------|
  *** ***     ***          ***

 4/4
  PM--------|     PM--|        PM--|
  S S E S S E E E S S E   E  E S S E E E E E
|-----------------------|-----------------------|
|-----------------------|-----------------------|
|-----------------------|-----------------------|
|-----------------------|-----------------------|
|---------7h8-----8h10--|-----------------------|
|-000-000-----000-------|-000-3-7-6-2-----------|
  *** ***     ***         ***

 4/4
  PM--------|     PM--|       PM------|
  S S E S S E E E S S E   E E S S E E E S S E      E E E E H
|-----------------------|-----------------------||--------------|
|-----------------------|----------------------o||--------------|
|-----------------------|-----------------------||--------------|
|-----------------------|---------4h5p4---------||--------------|
|---------6p5-----5p4---|----------------------o||-0-0-0--------|
|-000-000-----000-------|-000-5-7---------------||-0-0-0--------|
  *** ***     ***         *** * *    

    Q=190
    PM--|     PM--|         PM--|
    E E E E E E E E   S S E E E E E E E
||------------------|----------------------|
||o-----------------|----------------------|
||------------------|----------------------|
||------------------|-4h5p4-------8-7-6----|
||o-------6p5-------|----------------------|
||--0-0-0-----0-7-5-|-------0-0-0----------|
    * * *     * * *         * * *

  PM--|     PM|       PM------------|
  E E E E E E E E   E E E E S S E E E
|-----------------|-------------------| 
|-----------------|-------------------|
|-----------------|-------------------|
|-----------------|-------------------|
|-------6p5-----5p|=4-----------------|
|-0-0-0-----0-0---|---0-0-0-0-0-0-0---|
  * * *     * *       * * * * * * * 

PM--|     PM--|        PM--|         
  E E E E E E E E   Q    E E E E E E   
|-----------------|------------------|     |-------|
|-----------------|------------------|     |-------|
|-----------------|------------------|  X2 |-------| 
|-----------------|------------------|     |-------|
|-------6p5-------|------------------|     |-------|
|-0-0-0-----0-5-0-|-4b6r-0-0-0-8-6-5-|     |-1-3-1-|
  * * *     *   *        * * *        


  2.200
 2/4       4/4
  Gtr I
  PM------------|                                 PM---|
  E E E E   S S E          H.          H          S  S  E  E  E
|---------------------|------------------------------|
|---------------------|------------------------------|
|---------------------|------------------------------|
|---------------------|----------------10------------|
|---------------------|------------------------------|
|-000-----------------|------------0-8----8----------|
| ***                              * *    *
| Gtr II
| PM------------|    PM       PM--|      PM       PM---|
| E E E E   S S E  E E  E  E  S S E    E E  E  E  S  S  E  E  E
|---------------------|------------------------------|
|---------------------|------------------------------|
|---------------------|------------------------------|
|---------------------|----------------10------------|
|-----13---10h12------|-13---10h12-------------------|
|-000----0-------000--|----0-------0-8----8----------|
  ***    *       ***       *       * *    *

  PM--|
  S S E  H.                  W
|-------------------------|---------------------------|
|-------------------------|---------------------------|
|-------------------------|---------------------------|
|-------------------------|---------------------------|
|-------------------------|---------------------------|
|-000---------------------|---------------------------|
| ***
| PM--|             PM------|         PM
| S S E  E  E  E  E S S E    E  E  E  E S  S E E E
|-------------------------|---------------------------|
|-------------------------|---------------------------|
|-------------------------|---------------------------|
|-------------------------|---------------------------|
|-----13---10h12----------|----13-12------------------|
|-000----0-------000------|-10-------10-9h10p9-6-5----|
  ***    *       ***        *        *

    Gtrs I, II
    PM--|    PM      PM--|      PM       PM---|
    S S E  E E  E  E S S E    E E  E  E  S  S  E  E  E
||------------------------|------------------------------|
||o-----------------------|------------------------------|
||------------------------|------------------------------|
||------------------------|----------------10------------|
||o-----13---10h12--------|-13---10h12-------------------|
||--000----0-------000----|----0-------0-8----8----------|
    ***    *       ***         *       * *    *

                                                     1/4
 
  
|------------------------|-------------------------||------|
|------------------------|------------------------o||------|
|------------------------|-------------------------||------|
|------------------------|----8-7-5----------------||------|
|------13---10h12--------|--6-------7h8p7-5-4-----o||------|
|--000----0-------000----|-------------------------||------|
   ***    *       ***   

 
|---------------------|---------------------------|
|---------------------|---------------------------|
|---------------------|---------------------------|
|---------------------|----------------10---------|
|-----13---10h12------|-13---10h12----------------|
|-000----0-------000--|----0-------0-8----8-------|
  ***    *       ***       *       * *    *

|---------------------|---------------------------|
|---------------------|---------------------------|
|---------------------|---------------------------|
|---------------------|---------------------------|
|-----13---10h12------|----12-10------------------|
|-000----0-------000--|-10-------13-9h10p9-6-5----|
  ***    *       ***     
|---------------------|---------------------------|
|---------------------|---------------------------|
|---------------------|---------------------------|
|---------------------|----------------10---------|
|-----13---10h12------|-13---10h12----------------|
|-000----0-------000--|----0-------0-8----8-------|
  ***    *       ***       *       * *    *

|---------------------|---------------------------|
|---------------------|---------------------------|
|---------------------|---------------------------|
|---------------------|---------------------------|
|-----13---10h12------|----13-12-10-9h10p9-6-0----|
|-000----0-------000--|-10-------------------0----|
  ***    *       ***  


   4/4
      PM    PM  PM       PM--------|     PM    PM         PM
    E E E E E E E E   Q  E E E E E E   E E E E E  Q   E   E Q  E E Q.
||------------------|----------------|------------------|-------------|
||o-----------------|----------------|------------------|-------------|
||------------------|----------------|------------------|-------------|
||--8---5S7---8---5S|=7--------------|-8---5S7---10--10-|---8--8-8----|
||o-6---3S5---6---3S|=5--------------|-6---3S5----8---8-|---6--6-6-0--|
||----0-----0---0---|----0-0-0-0-0-0-|---0-----0--------|-0--------0--|


    PM    PM  PM        PM--------|     PM    PM       PM
  E E E E E E E E   Q   E E E E E E   E E E E E Q  E   E Q  E E Q.
|-----------------|-----------------|----------------|---------------||
|-----------------|-----------------|----------------|--------------o||
|-----------------|-----------------|----------------|---------------||
|-8---5S7---8---5S|=7---------------|-8---5S7--------|---------------||
|-6---3S5---6---3S|=5---------------|-6---3S5---3--3-|---1--1-1-0---o||
|---0-----0---0---|-----0-0-0-0-0-0-|---0-----0-3--3-|-0-1--1-1-0----||


  Q=180
          PM----|          PM------|         PM------|         PM------|
  E E E E E E E E    E E E E E E E E   E E E E E E E E   E E E E E E E E
|------------------|-----------------|-----------------|-------------------|
|------------------|-----------------|-----------------|-------------------|
|------------------|-----------------|-----------------|-------------------|
|-------7----------|-----7-----------|-----------------|-------------------|
|---5-6------------|-5-6-------------|-5-6-4-----------|-5-6-3-------------|
|---------0-0-0-0--|-------0-0-0-0-0-|-------0-0-0-0-0-|-------0-0-0-0-0---|


        PM------|         PM------|         PM------|         PM--------|
  E E E E E E E E   E E E E E E E E   E E E E E E E E   E E E S S E S S E E
|-----------------|-----------------|-----------------|--------------------|
|-----------------|-----------------|-----------------|--------------------|
|-----------------|-----------------|-----------------|--------------------|
|-----7-----------|-----7-----------|-----------------|--------------------|
|-5-6-------------|-5-6-------------|-5-6-4-----------|-5-6-3--------------|
|-------0-0-0-0-0-|-------0-0-0-0-0-|-------0-0-0-0-0-|-------6-5-4-5-4-3--|


    Q=180
          PM------|         PM------|
    E E E E E E E E   E E E E E E E E
||------------------|-----------------|
||o-----------------|-----------------|
||------------------|-----------------|
||------7-----------|-----7-----------|
||o-5-6-------------|-5-6-------------|
||--------0-0-0-0-0-|-------0-0-0-0-0-|


                                      
                                       
    
|-----------------|-------|
|-----------------|-------|
|-----------------|-------|
|-----------------|-------|
|-5-6-4-----------|-5-6-3-|
|-------0-0-0-0-0-|-------|


  Q=180
 4/4
        PM------|         PM------|         PM------|         PM------|
  E E E E E E E E   E E E E E E E E   E E E E E E E E   E E E E E E E E
|-----------------|-----------------|-----------------|--------------------|
|-----------------|-----------------|-----------------|--------------------|
|-----9-----------|-----9-----------|-----------------|--------------------|
|-7-8-7-----------|-7-8-7-----------|-7-8-6-----------|-7-8-5--------------|
|-5-6-------------|-5-6-------------|-5-6-4-----------|-5-6-3--------------|
|-------0-0-0-0-0-|-------0-0-0-0-0-|-------0-0-0-0-0-|-------0-0-0-0-0----|


        PM------|         PM------|         PM------|         PM--------|
  E E E E E E E E   E E E E E E E E   E E E E E E E E   E E E S S E S S E E
|-----------------|-----------------|-----------------|--------------------|
|-----------------|-----------------|-----------------|--------------------|
|-----9-----------|-----9-----------|-----------------|--------------------|
|-7-8-7-----------|-7-8-7-----------|-7-8-6-----------|-7-8-5--------------|
|-5-6-------------|-5-6-------------|-5-6-4-----------|-5-6-3--------------|
|-------0-0-0-0-0-|-------0-0-0-0-0-|-------0-0-0-0-0-|-------6-5-4-5-4-3--|


    Q=180                                                       1.
          PM------|         PM------|         PM------|         PM------|
    E E E E E E E E   E E E E E E E E   E E E E E E E E   E E E E E E E E
||------------------|-----------------|-----------------|-----------------||
||o-----------------|-----------------|-----------------|-----------------||
||------9-----------|-----9-----------|-----------------|-----------------||
||--7-8-7-----------|-7-8-7-----------|-7-8-6-----------|-7-8-5-----------||
||o-5-6-------------|-5-6-------------|-5-6-4-----------|-5-6-3-----------||
||--------0-0-0-0-0-|-------0-0-0-0-0-|-------0-0-0-0-0-|-------0-0-0-0-0-||


  2.
  PM--------------------|
  S S E S S E S S E S S E
|----------------------------|
|----------------------------|
|----------------------------|
|----------------------------|
|-------------6-5-4-8-7-6----|
|-6-5-4-5-4-3----------------|


  Q=230
  Gtr I
  PM--|   PM--------|       PM--|     PM------|
  E E E E E E E E   E E E E E E E E   E E E E E E E E
|--------------------------------------|-----------------------------------|
|--------------------------------------|-----------------------------------|
|--------------------------------------|-----------------------------------|
|---------------------------11---------|-----------------------------------|
|---------12----------12-13----13-12---|---------12----------------13-12-10|
|-0-12-13----13-12-13------------------|-0-12-13----13-12-11-12-10---------|
  * *  *     *  *  *                     *  *  *    *  *  *  *  *
|--------------------------------------|-------------|
|--------------------------------------|-------------|
|--------------------------------------|-------------|
|---------------------------11---------|-------------| 
|---------12----------12-13----13-12---|-------------|
|-0-12-13----13-12-13------------------|-5-8-4-7-6-3-|
  * *  *     *  *  *                     * * * * * *



  Q=230
  Gtr II

|------------------|
|------------------|
|------------------|
|-8----------------|
|-8----------------|
|-8----------------|

   PM---|   PM--------|         PM--|      PM-------------|
   E  E E E E E E E    E  E E E E E E E    E  E E E E E E E
|------------------------------------|-------------------------------------|
|------------------------------------|-------------------------------------|
|------------------------------------|-------------------------------------|
|---------------------------15-------|-------------------------------------|
|---------15----------15-16----16-15-|---------15----------------16-15-14--|
|-0-15-16----16-15-16----------------|-0-15-16----16-15-15-16-14-----------|
|
|------------------------------------|-------------|
|------------------------------------|-------------|
|------------------------------------|-------------|
|---------------------------15-------|-------------|
|---------15----------15-16----16-15-|-------------|
|-0-15-16----16-15-16----------------|-5-8-4-7-6-3-|


    Gtrs I, II
           PM----------|             PM--------|           
    H.     E E   E E E E H      +Q   E E E E E E      
||-----------|------------------|---------------|
||o----------|------------------|---------------|
||-----------|------------------|---------------|
||--0--------|-------------1----|-------------3-|
||o-0--------|-------------1----|-------------3-|
||--0--------|-5-8-4-7-3-6-1----|-5-8-4-7-6-3-3-|


  PM----|               PM--------|
  E E E E E E E E   E E E E E E E E     4x
|------------------------------------------|
|------------------------------------------|
|------------------------------------------|
|------------------------------------------| not sure if that fill is 
|-------------4b5r4---8-7-5----------------| right. but it sounds good
|-5-8-4-7-6-3-------5-------8-7-5-7-5-3----|


                                       
    Gtr I
    E E E E E E E E   E E E E E E E E   W         4x  W
||------------------|-----------------|-----------||--------|
||o-----------------|-----------------|----------o||--------|
||------------------|-----------------|-----------||--------|
||------------------|-----------------|-----------||--------|
||o-0-0-0-0-0-0-0-0-|-0-0-0-0-0-0-0---|----------o||--------|
||--0-0-0-0-0-0-0-0-|-0-0-0-0-0-0-0---|-----------||--------|
|
|   Gtr II
|   E E E E E E E E   E E E E E E E E   W         4x  W
||------------------|-----------------|-----------||--------|
||o-----------------|-----------------|----------o||--------|
||------------------|-----------------|-----------||--------|
||------------------|-----------------|-----------||--------|
||o-0-0-0-0-0-0-0-0-|-0-0-0-0-0-0-0---|----------o||--------|
||--0-0-0-0-0-0-0-0-|-0-0-0-0-0-0-0---|-----------||--------|

 
    E E E E E E E E   E E E E E E E E   W
||------------------|-----------------|--------------------|
||o-----------------|-----------------|--------------------|
||------------------|-----------------|--------------------|
||------------------|-----------------|--------------------| X2
||o-0-0-0-0-0-0-0-0-|-0-0-0-0-0-0-0---|--------------------|
||--0-0-0-0-0-0-0-0-|-0-0-0-0-0-0-0---|--------------------|
|
|   Gtr II
|   PM--|   PM--------|       PM--|     PM------|
|   E E E E E E E E   E E E E E E E E   E E E E E E E E
|--------------------------------------|-----------------------------------|
|--------------------------------------|-----------------------------------|
|--------------------------------------|-----------------------------------|
|---------------------------11---------|-----------------------------------|
|---------12----------12-13----13-12---|---------12----------------13-12-10|
|-0-12-13----13-12-13------------------|-0-12-13----13-12-11-12-10---------|
  * *  *     *  *  *                     *  *  *    *  *  *  *  *
|--------------------------------------|-------------|
|--------------------------------------|-------------|
|--------------------------------------|-------------|
|---------------------------11---------|-------------| X6
|---------12----------12-13----13-12---|-------------|
|-0-12-13----13-12-13------------------|-5-8-4-7-6-3-|
  * *  *     *  *  *                     * * * * * *


    Gtr I
    PM------------------------------------------------|
    E E E E E E E E   E E E E E E E E   E E E E E E E E
||------------------|-----------------|--------------------|
||o-----------------|-----------------|--------------------|
||------------------|-----------------|--------------------|
||------------------|-----------------|--------------------| X2
||o-0-0-0-0-0-0-0-0-|-0-0-0-0-0-0-0---|--------------------|
||--0-0-0-0-0-0-0-0-|-0-0-0-0-0-0-0---|--------------------|


||------------------|-----------------|--------------------|
||o-----------------|-----------------|--------------------|
||------------------|-----------------|--------------------|
||------------------|-----------------|--------------------|
||o-----------------|-----------------|--------------------|
||--0-0-0-0-0-0-0-0-|-0-0-0-0-1-1-1-1-|-1-1-1-1-1-1-1-1----|
|
  
  E E E E E E E E   E E E E E E E E   E E E E E E E E
|-----------------|-----------------|---------------------||
|-----------------|-----------------|--------------------o||
|-----------------|-----------------|---------------------|| X2 muted
|-----------------|-----------------|---------------------||
|-----------------|-----------------|--------------------o|| X2 open
|-8-8-8-8-8-8-8-8-|-8-8-8-8-7-7-7-7-|-7-7-5-8-4-7-6-3-----||
|



 
 
Lamb Of God - Hourglass Tab :: indexed at Ultimate Guitar.
Hourglass tabs @ 911Tabs

Quick tip, so you can enjoy Hourglass Tab even more:

YourChords.com Guitar Chords and Tabs Archive is currently indexing over 240'000 songs from 21'000+ different artists. And new chords just keep on coming in, so you will surely never run out of them.

Show us your talent, perform Hourglass Tab!

Here you can post a video or audio performance. Tell me more ...
Where can we find your performance? Tell me more ...
Your comment:
Please, log in to post your performance.