Artists by letter: A B C D E F G H I J K L M N O P Q R S T U V W X Y Z 0-9

 
Dead Seeds Tab
                              DEAD SEEDS (Bassline)
                           As recorded by Lamb Of God
                           (From the 2009 Album WRATH)

Words by Randy Blythe

Music by Lamb Of God
Arranged by Lamb Of God
Transcribed by Simon Montague-Bassett

Gtr I (D A D G) - 'John Campbell'

  Q=115
 4/4
  Gtr I
  H    Q  S S S S   E.  E.  S S S S S S S S S S
|-----------------|-----------------------------|
|-----------------|-----------------------------|
|-----------------|-----------------------------|
|------0--0-0-0-0-|-3b4-3b4-0-0-1-0-4-0-5-4-1-3-|


    E. E.  E   Q  S S S S   E.  E.  S S S S S S S S S S  3x
||------------------------|------------------------------||
||o-----------------------|-----------------------------o||
||o-----------------------|-----------------------------o||
||--0--3b4-3b4-0--0-0-0-0-|-3b4-3b4-0-0-1-0-4-0-5-4-1-3--||


  S S S S S S S S H      W
|----------------------|------|
|----------------------|------|
|----------------------|------|
|-0-0-0-0-0-0-0-0------|------|


  W          H    S S S S S S S S
|----------|----------------------|
|----------|----------------------|
|----------|----------------------|
|----------|------1-1-1-1-1-1-1-1-|


  S S S S S S S S H      W
|----------------------|------|
|----------------------|------|
|----------------------|------|
|-0-0-0-0-0-0-0-0------|------|


  Wx2
|--------|
|--------|
|--------|
|--------|


    S S S S S S S S S S S S S S S S   S S S S S S S S S S S S S S S S
||----------------------------------|----------------------------------|
||o---------------------------------|-------------------------4-5-4----|
||o-5-3-5-----------5-3-5-----------|-6-5-6-----------6-5-3-5-------6--|
||--------0-0-0-0-0-------0-0-0-0-0-|-------0-0-0-0-0------------------|


  S S S S S S S S S S S S S S S S   S S S S S S S S S S S S S S S S
|---------------------------------|----------------------------------||
|---------------------------------|---------------------------------o||
|-5-3-5-----------5-3-5-----------|-6-5-6---------------------------o||
|-------0-0-0-0-0-------0-0-0-0-0-|-------0-0-0-0-0-0-1-1-1-1-1-1-1--||


                                                              D.C.
                                                            PM----|
  S S S S S S S S S S S S S S S S   S S S S S S S S S S S S S S S S
|---------------------------------|---------------------------------|
|---------------------------------|---------------------------------|
|---------------------------------|---------------------------------|
|-1-2-2-3-2-2-1-2-2-3-2-2-5-3-2-2-|-1-2-2-3-2-2-1-2-2-3-2-2-1-1-1-1-|


  H    Q  S S S S   E.  E.  S S S S S S S S S S
|-----------------|-----------------------------|
|-----------------|-----------------------------|
|-----------------|-----------------------------|
|------0--0-0-0-0-|-3b4-3b4-0-0-1-0-4-0-5-4-1-3-|


    E. E.  E   Q  S S S S   E.  E.  S S S S S S S S S S  3x
||------------------------|------------------------------||
||o-----------------------|-----------------------------o||
||o-----------------------|-----------------------------o||
||--0--3b4-3b4-0--0-0-0-0-|-3b4-3b4-0-0-1-0-4-0-5-4-1-3--||


  W          +W
|----------|--------|
|----------|--------|
|----------|--------|
|-0--------|-(0)----|


    S S S S S S S S S S S S S S S S   S S S S S S S S S S S S S S S S   3x
||----------------------------------|-----------------------------------||
||o---------------------------------|----------------------------------o||
||o---------------------------------|----------------------------------o||
||--2-3-2-2-2-3-2-2-2-3-2-2-2-3-2-2-|-2-3-2-2-2-3-2-2-2-3-2-2-2-3-2-2---||


    Q  S S Q  S S Q    S S S S Q  S S Q  S S   S S S S Q  S S S S S S S S  3x
||-------------------|-----------------------|-----------------------------||
||o------------------|-----------------------|----------------------------o||
||o------------------|-----------------------|----------------------------o||
||--6--2-2-5--2-2-5--|-2-3-2-2-5--2-2-5--2-2-|-3-2-2-2-5--2-3-2-2-2-3-2-2--||


  Q  S S Q  S S Q    S S S S Q  S S Q  S S   S S S S Q  S S S S S S S S
|------------------|-----------------------|-----------------------------|
|------------------|-----------------------|-----------------------------|
|------------------|-----------------------|-----------------------------|
|-6--2-2-5--2-2-5--|-2-3-2-2-5--2-2-5--2-2-|-3-2-2-2-5--0-1-0-0-3-1-0-7--|


    +E  E S S S S +E  E S S S S   +S  S S S S S S S S S S S S S S S  3x
||------------------------------|------------------------------------||
||o-----------------------------|-----------------------------------o||
||o-----------------------------|-------------3-5-6-----------------o||
||--(7)-6-0-1-0-7-(7)-6-0-1-0-7-|-(7)-6-3-5-6-------0-1-0-0-3-1-0-7--||


                               2/4
  +E  E S S S S +E  E S S S S   +S  S S S S S S S
|-----------------------------|-------------------|
|-----------------------------|-------------------|
|-----------------------------|-------------3-5-6-|
|-(7)-6-0-1-0-7-(7)-6-0-1-0-7-|-(7)-6-3-5-6-------|


 4/4
  H    Q  S S S S   E.    E.    S S S S S S S S S S
|-----------------|---------------------------------|
|-----------------|---------------------------------|
|-----------------|-5b6.5-5b6.5---------------------|
|------0--0-0-0-0-|-------------0-0-1-0-4-0-5-4-1-3-|


    E.    E.    E     Q  S S S S   E.    E.    S S S S S S S S S S  3x
||-------------------------------|----------------------------------||
||o------------------------------|---------------------------------o||
||o-5b6.5-5b6.5-5b6.5------------|-5b6.5-5b6.5---------------------o||
||--------------------0--0-0-0-0-|-------------0-0-1-0-4-0-5-4-1-3--||


    E. E.  E   Q  S S S S   E.  E.  S S S S S S S S S S  4x
||------------------------|------------------------------||
||o-----------------------|-----------------------------o||
||o-----------------------|-----------------------------o||
||--0--3b4-3b4-0--0-0-0-0-|-3b4-3b4-0-0-1-0-4-0-5-4-1-3--||


Duration Legend
---------------
W - whole; H - half; Q - quarter; E - 8th; S - 16th; T - 32nd; X - 64th; a - acciaccatura
+ - note tied to previous; . - note dotted; .. - note double dotted
Uncapitalized letters represent notes that are staccato (1/2 duration)
Irregular groupings are notated above the duration line
Duration letters will always appear directly above the note/fret number it represents the
duration for.  Duration letters with no fret number below them represent rests.  Multi-
bar rests are notated in the form Wxn, where n is the number of bars to rest for.  Low
melody durations appear below the staff

Tablature Legend
----------------
 h   - hammer-on
 p   - pull-off
 b   - bend
 pb  - pre-bend
 r   - bend release (if no number after the r, then release immediately)
 /\  - slide into or out of (from/to "nowhere")
 s   - legato slide
 S   - shift slide
  - natural harmonic
[n]  - artificial harmonic
n(n) - tapped harmonic
 ~   - vibrato
 tr  - trill
 T   - tap
 TP  - trem. picking
 PM  - palm muting
\n/  - tremolo bar dip; n = amount to dip
 \n  - tremolo bar down
 n/  - tremolo bar up
/n\  - tremolo bar inverted dip
 =   - hold bend; also acts as connecting device for hammers/pulls
   - volume swell (louder/softer)
 x   - on rhythm slash represents muted slash
 o   - on rhythm slash represents single note slash

Misc Legend
-----------
 |  - bar
||  - double bar
||o - repeat start
o|| - repeat end
*|  - double bar (ending)
 :  - bar (freetime)
 $  - Segno
 &  - Coda
Tempo markers -  = BPM(8/16=s8/s16), where s8 = swing 8ths, s16 = swing 16ths

 
 
Lamb Of God - Dead Seeds Tab :: indexed at Ultimate Guitar.
Dead Seeds tabs @ 911Tabs

Quick tip, so you can enjoy Dead Seeds Tab even more:

You might want to transpose the song if it is too high or too low for you to sing. Just click the desired option while playing a song and all the chords will automatically be transponded into a new key.

Show us your talent, perform Dead Seeds Tab!

Here you can post a video or audio performance. Tell me more ...
Where can we find your performance? Tell me more ...
Your comment:
Please, log in to post your performance.