Artists by letter: A B C D E F G H I J K L M N O P Q R S T U V W X Y Z 0-9

 
Broken Hands Tab
                                  BROKEN HANDS
                           As recorded by Lamb Of God
                           (From the 2009 Album WRATH)

Words by Randy Blythe

Music by Lamb Of God
Arranged by Lamb Of God
Transcribed by Simon Montague-Bassett

Gtr I (C# G# C# F# A# D#) - 'Willie Adler'
Gtr II (C# G# C# F# A# D#) - 'Mark Morton'

  Q=160
 4/4
  Gtrs I, II
                  PM|
  W          H    E E Q
|----------|-------------|
|----------|-------------|
|----------|-------------|
|----------|-------------|
|----------|------1-1----|
|----------|------1-1----|


    Gtr I
     E  E  E  E  E  E  E  E    E  E  E  E  E  E  E  E
||--------------------------|-------------------------|
||o-------------------------|-------------------------|
||--------------------------|-------------------------|
||---0--0--0--0--0--0--0--0-|--0--0--0--0--6--6--6--6-|
||o--0--0--0--0--0--0--0--0-|--0--0--0--0--6--6--6--6-|
||---0--0--0--0--0--0--0--0-|--0--0--0--0--6--6--6--6-|
|
|   Gtr II
|    E  E  E  E  E  E  E  E    E  E  E  E  E  E  E  E
||--------------------------|-------------------------|
||o-------------------------|-------------------------|
||--------------14----------|-------------14----------|
||--10-12-13-12----13-12-10-|-12-13-12-10----12-10-13-|
||o-------------------------|-------------------------|
||--------------------------|-------------------------|


   E  E  E  E  E  E  E  E    E  E  E  E  E  E  E  E
|-------------------------|--------------------------|
|-------------------------|--------------------------|
|-------------------------|--------------------------|
|--5--5--5--5--5--5--5--3-|--3--3--3--3--3--3--3--3--|
|--5--5--5--5--5--5--5--3-|--3--3--3--3--3--3--3--3--|
|--5--5--5--5--5--5--5--3-|--3--3--3--3--3--3--3--3--|
|
|  E  E  E  E  E  E  E  E    E  E  E  E  E  E  E  E
|-------------------------|--------------------------|
|-------------------------|--------------------------|
|-------------14----------|-------------14-----------|
|-10-12-13-12----13-12-10-|-12-13-12-10----12-10-13--|
|-------------------------|--------------------------|
|-------------------------|--------------------------|


   E  E  E  E  E  E  E  E    E  E  E  E  E  E  E  E
|-------------------------|-------------------------|
|-------------------------|-------------------------|
|-------------------------|-------------------------|
|--6--6--6--6--6--6--6--6-|--6--6--6--6--6--6--6--6-|
|--6--6--6--6--6--6--6--6-|--6--6--6--6--6--6--6--6-|
|--6--6--6--6--6--6--6--6-|--6--6--6--6--6--6--6--6-|
|
|  E  E  E  E  E  E  E  E    E  E  E  E  E  E  E  E
|-------------------------|-------------------------|
|-------------------------|-------------------------|
|-------------14----------|-------------14----------|
|-10-12-13-12----13-12-10-|-12-13-12-10----12-10-13-|
|-------------------------|-------------------------|
|-------------------------|-------------------------|


  PM----|   PM--|         PM|               PM--------|
  E E E E E E E E   S S E E E S S E E E     S S S S E E E Q.
|-----------------|----------------------||---------------------|
|-----------------|---------------------o||---------------------|
|-----------------|----------------------||---------------------|
|-----------------|----------------------||---------------------|
|---------6-5-3-5-|-5s6s5-3-5-5s6s5-3-5-o||-0-0-0-0-0-3-0-------|
|-3-6-5-3---5-3-5-|-5s6s5-3-5-5s6s5-3-5--||-0-0-0-0-0-5-0-------|
|
| PM----|   PM--|         PM|               PM--------|
| E E E E E E E E   S S E E E S S E E E     S S S S E E E Q.
|-----------------|----------------------||---------------------|
|-----------------|---------------------o||---------------------|
|-----------------|----------------------||---------------------|
|-----------------|----------------------||---------------------|
|---------6-5-3-5-|-5s6s5-3-5-5s6s5-3-5-o||-0-0-0-0-0-3-0-------|
|-3-6-5-3---5-3-5-|-5s6s5-3-5-5s6s5-3-5--||-0-0-0-0-0-5-0-------|


    Gtrs I, II
    PM--------|   PM--|     PM  PM  PM  PM
    S S S S E E E S S E E   E E E E E E E E
||------------------------|-----------------|
||o-----------------------|-----------------|
||------------------------|-----------------|
||------------------------|-----------------|
||o-0-0-0-0-0-3-0-0-0-0-0-|-0-3-0-4-0-3-0-1-|
||--0-0-0-0-0-5-0-0-0-0-0-|-0-3-0-4-0-3-0-1-|


  PM--------|   PM--|     PM--------------------|
  S S S S E E E S S E E   S S E S S E S S E S S E   4x
|-----------------------|---------------------------||
|-----------------------|--------------------------o||
|-----------------------|---------------------------||
|-----------------------|---------------------------||
|-0-0-0-0-0-3-0-0-0-0-0-|-0-0-0-0-0-0-0-0-0-0-0-0--o||
|-0-0-0-0-0-5-0-0-0-0-0-|-0-0-0-0-0-0-0-0-0-0-0-0---||


    PM------------------------------------------------------|  ~~~
    S S S S S S S S S S S S S S S S   S S S S S S S S S S S S  Q
||----------------------------------|-------------------------------||
||o---------------------------------|------------------------------o||
||----------------------------------|-------------------------------||
||----------------------------------|-------------------------------||
||o---------------------------------|------------------------------o||
||--0-2-2-2-2-2-0-2-2-2-2-2-0-2-2-2-|-2-2-0-2-2-2-2-2-0-2-2-2-[3]---||


  PM--|    PM--|    PM--|         PM--|    PM----|   PM|
  S S S E. S S S E. S S S S   +E  S S S E. S S S S S S S S
|---------------------------|------------------------------|
|---------------------------|------------------------------|
|---------------------------|------------------------------|
|---------------------------|------------------------------|
|---------------------------|----------------------2-----3-|
|-2-2-2-2--2-2-2-2--2-2-2-2-|-(2)-2-2-2-2--2-2-2-2---2-2---|


  PM--|    PM--|    PM--|         PM--|    PM|
  S S S E. S S S E. S S S S   +E  S S S E. E E Q
|---------------------------|---------------------|
|---------------------------|---------------------|
|---------------------------|---------------------|
|---------------------------|---------------------|
|---------------------------|--------------1-1----|
|-2-2-2-2--3-3-3-3--1-1-1-1-|-(1)-1-1-1-1--1-1----|


    Gtr I
     E  E  E  E  E  E  E  E    E  E  E  E  E  E  E  E
||--------------------------|-------------------------|
||o-------------------------|-------------------------|
||--------------------------|-------------------------|
||---0--0--0--0--0--0--0--0-|--0--0--0--0--6--6--6--6-|
||o--0--0--0--0--0--0--0--0-|--0--0--0--0--6--6--6--6-|
||---0--0--0--0--0--0--0--0-|--0--0--0--0--6--6--6--6-|
|
|   Gtr II
|    E  E  E  E  E  E  E  E    E  E  E  E  E  E  E  E
||--------------------------|-------------------------|
||o-------------------------|-------------------------|
||--------------14----------|-------------14----------|
||--10-12-13-12----13-12-10-|-12-13-12-10----12-10-13-|
||o-------------------------|-------------------------|
||--------------------------|-------------------------|


   E  E  E  E  E  E  E  E    E  E  E  E  E  E  E  E
|-------------------------|--------------------------|
|-------------------------|--------------------------|
|-------------------------|--------------------------|
|--5--5--5--5--5--5--5--3-|--3--3--3--3--3--3--3--3--|
|--5--5--5--5--5--5--5--3-|--3--3--3--3--3--3--3--3--|
|--5--5--5--5--5--5--5--3-|--3--3--3--3--3--3--3--3--|
|
|  E  E  E  E  E  E  E  E    E  E  E  E  E  E  E  E
|-------------------------|--------------------------|
|-------------------------|--------------------------|
|-------------14----------|-------------14-----------|
|-10-12-13-12----13-12-10-|-12-13-12-10----12-10-13--|
|-------------------------|--------------------------|
|-------------------------|--------------------------|


   E  E  E  E  E  E  E  E    E  E  E  E  E  E  E  E
|-------------------------|-------------------------|
|-------------------------|-------------------------|
|-------------------------|-------------------------|
|--6--6--6--6--6--6--6--6-|--6--6--6--6--6--6--6--6-|
|--6--6--6--6--6--6--6--6-|--6--6--6--6--6--6--6--6-|
|--6--6--6--6--6--6--6--6-|--6--6--6--6--6--6--6--6-|
|
|  E  E  E  E  E  E  E  E    E  E  E  E  E  E  E  E
|-------------------------|-------------------------|
|-------------------------|-------------------------|
|-------------14----------|-------------14----------|
|-10-12-13-12----13-12-10-|-12-13-12-10----12-10-13-|
|-------------------------|-------------------------|
|-------------------------|-------------------------|


  PM----|   PM--|         PM|               PM--------|
  E E E E E E E E   S S E E E S S E E E     S S S S E E E Q.
|-----------------|----------------------||---------------------|
|-----------------|---------------------o||---------------------|
|-----------------|----------------------||---------------------|
|-----------------|----------------------||---------------------|
|---------6-5-3-5-|-5s6s5-3-5-5s6s5-3-5-o||-0-0-0-0-0-3-0-------|
|-3-6-5-3---5-3-5-|-5s6s5-3-5-5s6s5-3-5--||-0-0-0-0-0-5-0-------|
|
| PM----|   PM--|         PM|               PM--------|
| E E E E E E E E   S S E E E S S E E E     S S S S E E E Q.
|-----------------|----------------------||---------------------|
|-----------------|---------------------o||---------------------|
|-----------------|----------------------||---------------------|
|-----------------|----------------------||---------------------|
|---------6-5-3-5-|-5s6s5-3-5-5s6s5-3-5-o||-0-0-0-0-0-3-0-------|
|-3-6-5-3---5-3-5-|-5s6s5-3-5-5s6s5-3-5--||-0-0-0-0-0-5-0-------|


    Gtrs I, II
    PM--------|   PM--|     PM  PM  PM  PM
    S S S S E E E S S E E   E E E E E E E E
||------------------------|-----------------|
||o-----------------------|-----------------|
||------------------------|-----------------|
||------------------------|-----------------|
||o-0-0-0-0-0-3-0-0-0-0-0-|-0-3-0-4-0-3-0-1-|
||--0-0-0-0-0-5-0-0-0-0-0-|-0-3-0-4-0-3-0-1-|


  PM--------|   PM--|     PM--------------------|
  S S S S E E E S S E E   S S E S S E S S E S S E   4x
|-----------------------|---------------------------||
|-----------------------|--------------------------o||
|-----------------------|---------------------------||
|-----------------------|---------------------------||
|-0-0-0-0-0-3-0-0-0-0-0-|-0-0-0-0-0-0-0-0-0-0-0-0--o||
|-0-0-0-0-0-5-0-0-0-0-0-|-0-0-0-0-0-0-0-0-0-0-0-0---||


    PM------------------------------------------------------|  ~~~
    S S S S S S S S S S S S S S S S   S S S S S S S S S S S S  Q
||----------------------------------|-------------------------------||
||o---------------------------------|------------------------------o||
||----------------------------------|-------------------------------||
||----------------------------------|-------------------------------||
||o---------------------------------|------------------------------o||
||--0-2-2-2-2-2-0-2-2-2-2-2-0-2-2-2-|-2-2-0-2-2-2-2-2-0-2-2-2-[3]---||


  PM--|    PM--|    PM--|         PM--|    PM----|   PM|
  S S S E. S S S E. S S S S   +E  S S S E. S S S S S S S S
|---------------------------|------------------------------|
|---------------------------|------------------------------|
|---------------------------|------------------------------|
|---------------------------|------------------------------|
|---------------------------|----------------------2-----3-|
|-2-2-2-2--2-2-2-2--2-2-2-2-|-(2)-2-2-2-2--2-2-2-2---2-2---|


  PM--|    PM--|    PM--|         PM--|    PM|
  S S S E. S S S E. S S S S   +E  S S S E. E E Q
|---------------------------|---------------------|
|---------------------------|---------------------|
|---------------------------|---------------------|
|---------------------------|---------------------|
|---------------------------|--------------1-1----|
|-2-2-2-2--3-3-3-3--1-1-1-1-|-(1)-1-1-1-1--1-1----|


    Gtr I
     E  E  E  E  E  E  E  E    E  E  E  E  E  E  E  E
||--------------------------|-------------------------|
||o-------------------------|-------------------------|
||--------------------------|-------------------------|
||---0--0--0--0--0--0--0--0-|--0--0--0--0--6--6--6--6-|
||o--0--0--0--0--0--0--0--0-|--0--0--0--0--6--6--6--6-|
||---0--0--0--0--0--0--0--0-|--0--0--0--0--6--6--6--6-|
|
|   Gtr II
|    E  E  E  E  E  E  E  E    E  E  E  E  E  E  E  E
||--------------------------|-------------------------|
||o-------------------------|-------------------------|
||--------------14----------|-------------14----------|
||--10-12-13-12----13-12-10-|-12-13-12-10----12-10-13-|
||o-------------------------|-------------------------|
||--------------------------|-------------------------|


   E  E  E  E  E  E  E  E    E  E  E  E  E  E  E  E
|-------------------------|--------------------------|
|-------------------------|--------------------------|
|-------------------------|--------------------------|
|--5--5--5--5--5--5--5--3-|--3--3--3--3--3--3--3--3--|
|--5--5--5--5--5--5--5--3-|--3--3--3--3--3--3--3--3--|
|--5--5--5--5--5--5--5--3-|--3--3--3--3--3--3--3--3--|
|
|  E  E  E  E  E  E  E  E    E  E  E  E  E  E  E  E
|-------------------------|--------------------------|
|-------------------------|--------------------------|
|-------------14----------|-------------14-----------|
|-10-12-13-12----13-12-10-|-12-13-12-10----12-10-13--|
|-------------------------|--------------------------|
|-------------------------|--------------------------|


   E  E  E  E  E  E  E  E    E  E  E  E  E  E  E  E
|-------------------------|-------------------------|
|-------------------------|-------------------------|
|-------------------------|-------------------------|
|--6--6--6--6--6--6--6--6-|--6--6--6--6--6--6--6--6-|
|--6--6--6--6--6--6--6--6-|--6--6--6--6--6--6--6--6-|
|--6--6--6--6--6--6--6--6-|--6--6--6--6--6--6--6--6-|
|
|  E  E  E  E  E  E  E  E    E  E  E  E  E  E  E  E
|-------------------------|-------------------------|
|-------------------------|-------------------------|
|-------------14----------|-------------14----------|
|-10-12-13-12----13-12-10-|-12-13-12-10----12-10-13-|
|-------------------------|-------------------------|
|-------------------------|-------------------------|


                                           2/4
  PM----|   PM--|         PM|               PM--------|
  E E E E E E E E   S S E E E S S E E E     S S S S E E
|-----------------|----------------------||---------------|
|-----------------|---------------------o||---------------|
|-----------------|----------------------||---------------|
|-----------------|----------------------||---------------|
|---------6-5-3-5-|-5s6s5-3-5-5s6s5-3-5-o||-0-0-0-0-0-3---|
|-3-6-5-3---5-3-5-|-5s6s5-3-5-5s6s5-3-5--||-0-0-0-0-0-5---|
|
| PM----|   PM--|         PM|               PM--------|
| E E E E E E E E   S S E E E S S E E E     S S S S E E
|-----------------|----------------------||---------------|
|-----------------|---------------------o||---------------|
|-----------------|----------------------||---------------|
|-----------------|----------------------||---------------|
|---------6-5-3-5-|-5s6s5-3-5-5s6s5-3-5-o||-0-0-0-0-0-3---|
|-3-6-5-3---5-3-5-|-5s6s5-3-5-5s6s5-3-5--||-0-0-0-0-0-5---|


 4/4
                                     PM-----------|
   Q.     Q.    Q         +E   Q.    S    S S S E E
|----------------------|----------------------------|
|----------------------|----------------------------|
|----------------------|----------------------------|
|--3------0-----6------|--(6)--0--------------------|
|--3------0-----6------|--(6)--0-----0----0-0-0-0-3-|
|--3------0-----6------|--(6)--0-----0----0-0-0-0-5-|
|
|  H.           Q         +H         H
|----------------------|----------------------------|
|-10-----------10------|-(10)-------12--------------|
|-12b14--------12b14===|=(12)r------14b16-----------|
|----------------------|----------------------------|
|----------------------|----------------------------|
|----------------------|----------------------------|


                                    PM--------|
   Q.     Q.    Q         +E   Q.   S S S S E E
|----------------------|-------------------------|
|----------------------|-------------------------|
|----------------------|-------------------------|
|--3------0-----6------|--(6)--0-----------------|
|--3------0-----6------|--(6)--0----0-0-0-0-0-3--|
|--3------0-----6------|--(6)--0----0-0-0-0-0-5--|
|
|  H.           Q         +W
|----------------------|-------------------------|
|-13-----------13------|-(13)--------------------|
|-15b17--------15b17===|=(15)r-------------------|
|----------------------|-------------------------|
|----------------------|-------------------------|
|----------------------|-------------------------|


                                         PM--------|
   E    E E E E E  E     E     E   E E E S S S S E E
|--------------------------|-------------------------|
|--------------------------|-------------------------|
|--------------------------|-------------------------|
|--3----3-3-0-0-0--6-----6-|---6---0-0-0-------------|
|--3----3-3-0-0-0--6-----6-|---6---0-0-0-0-0-0-0-0-3-|
|--3----3-3-0-0-0--6-----6-|---6---0-0-0-0-0-0-0-0-5-|
|
|  H.              Q          +W
|--------------------------|-------------------------|
|-15--------------15-------|-(15)--------------------|
|-17b19-----------17b19====|=(17)r-------------------|
|--------------------------|-------------------------|
|--------------------------|-------------------------|
|--------------------------|-------------------------|


   E     E     E     E     E     E     E     E       E     E     E     E     S    S S S S S S S
|-------------------------------------------------|----------------------------------------------|
|-------------------------------------------------|----------------------------------------------|
|-------------------------------------------------|----------------------------------------------|
|--3-----3-----3-----0-----0-----0-----6-----6----|--6-----0-----0-----0-----6----6-6-6-6-6-6-6--|
|--3-----3-----3-----0-----0-----0-----6-----6----|--6-----0-----0-----0-----6----6-6-6-6-6-6-6--|
|--3-----3-----3-----0-----0-----0-----6-----6----|--6-----0-----0-----0-----6----6-6-6-6-6-6-6--|
|
|                                                                            ~~~~~
|  S  S  S  S  S  S  S  S  S  S  S  S  S  S  S  S    S  S  S  S  S  S  S  S  H
|-------------------------------------------------|----------------------------------------------|
|-20p15----15-20p15-20p15----15-20p15-20p15----15-|-20p15----15-20p15----15-20b23----------------|
|-------17----------------17----------------17----|-------17----------17-------------------------|
|-------------------------------------------------|----------------------------------------------|
|-------------------------------------------------|----------------------------------------------|
|-------------------------------------------------|----------------------------------------------|


    Gtrs I, II
    PM----------------------------------------------------|
    S S S S S S S S S Q..     E S S S S S S S S S S S S S S  4x
||--------------------------|--------------------------------||
||o-------------------------|-------------------------------o||
||--------------------------|--------------------------------||
||--------------------------|--------------------------------||
||o-------------------------|-------------------------------o||
||--0-0-0-0-0-0-0-0-0-------|---0-0-0-0-0-0-0---0-0-0-0-0----||


    Gtr I
    ~~                      ~                            ~
    Q.           Q.         Q    +Q      H               Q        4x
||-----------------------------|----------------------------------||
||o----------------------------|---------------------------------o||
||-----------------------------|----------------------------------||
||-----------------------------|----------------------------------||
||o----------------------------|---------------------------------o||
||--3------------0----------6--|-(6)-----0---------------5--------||
|
|   Gtr II
|   PM---------------------------------------------------------|
|   S  S S S S S S  S S Q..       E  S S S S S S S S S S S S S S  4x
||-----------------------------|----------------------------------||
||o----------------------------|---------------------------------o||
||-----------------------------|----------------------------------||
||-----------------------------|----------------------------------||
||o----------------------------|---------------------------------o||
||--0--0-0-0-0-0-0--0-0--------|-----0-0-0-0-0-0-0---0-0-0-0-0----||


  Gtrs I, II
                            PM--------|
  E E E E E E E E   E E E E S S S S E E
|-----------------|---------------------|
|-----------------|---------------------|
|-----------------|---------------------|
|-3-3-3-0-0-0-6-6-|-6-0-0-0-------------|
|-3-3-3-0-0-0-6-6-|-6-0-0-0-0-0-0-0-0-3-|
|-3-3-3-0-0-0-6-6-|-6-0-0-0-0-0-0-0-0-5-|


                            PM--------|
  E E E E E E E E   E E E E S S S S E E
|-----------------|---------------------|
|-----------------|---------------------|
|-----------------|---------------------|
|-3-3-3-0-0-0-6-6-|-6-0-0-0-------------|
|-3-3-3-0-0-0-6-6-|-6-0-0-0-0-0-0-0-0-3-|
|-3-3-3-0-0-0-6-6-|-6-0-0-0-0-0-0-0-0-5-|


  PM--------------------------------------------------------------|
  S S S S S S S S S S S S S S S S   S S S S S S S S S S S S S S S S
|---------------------------------|---------------------------------|
|---------------------------------|---------------------------------|
|---------------------------------|---------------------------------|
|---------------------------------|---------------------------------|
|---------------------------------|-----------------------------3-3-|
|-3-3-3-3-3-3-0-0-0-0-0-0-6-6-6-6-|-6-6-0-0-0-0-0-0-0-0-0-0-0-0-----|


  PM--------------------------------------------------|
  S S S S S S S S S S S S S S S S   S S S S S S S S E E Q
|---------------------------------|------------------------|
|---------------------------------|------------------------|
|---------------------------------|------------------------|
|---------------------------------|------------------------|
|---------------------------------|-----------------1-1----|
|-3-3-3-3-3-3-0-0-0-0-0-0-6-6-6-6-|-6-6-0-0-0-0-0-0-1-1----|


    Gtr I
     E  E  E  E  E  E  E  E    E  E  E  E  E  E  E  E
||--------------------------|-------------------------|
||o-------------------------|-------------------------|
||--------------------------|-------------------------|
||---0--0--0--0--0--0--0--0-|--0--0--0--0--6--6--6--6-|
||o--0--0--0--0--0--0--0--0-|--0--0--0--0--6--6--6--6-|
||---0--0--0--0--0--0--0--0-|--0--0--0--0--6--6--6--6-|
|
|   Gtr II
|    E  E  E  E  E  E  E  E    E  E  E  E  E  E  E  E
||--------------------------|-------------------------|
||o-------------------------|-------------------------|
||--------------14----------|-------------14----------|
||--10-12-13-12----13-12-10-|-12-13-12-10----12-10-13-|
||o-------------------------|-------------------------|
||--------------------------|-------------------------|


   E  E  E  E  E  E  E  E    E  E  E  E  E  E  E  E
|-------------------------|--------------------------|
|-------------------------|--------------------------|
|-------------------------|--------------------------|
|--5--5--5--5--5--5--5--3-|--3--3--3--3--3--3--3--3--|
|--5--5--5--5--5--5--5--3-|--3--3--3--3--3--3--3--3--|
|--5--5--5--5--5--5--5--3-|--3--3--3--3--3--3--3--3--|
|
|  E  E  E  E  E  E  E  E    E  E  E  E  E  E  E  E
|-------------------------|--------------------------|
|-------------------------|--------------------------|
|-------------14----------|-------------14-----------|
|-10-12-13-12----13-12-10-|-12-13-12-10----12-10-13--|
|-------------------------|--------------------------|
|-------------------------|--------------------------|


   E  E  E  E  E  E  E  E    E  E  E  E  E  E  E  E
|-------------------------|-------------------------|
|-------------------------|-------------------------|
|-------------------------|-------------------------|
|--6--6--6--6--6--6--6--6-|--6--6--6--6--6--6--6--6-|
|--6--6--6--6--6--6--6--6-|--6--6--6--6--6--6--6--6-|
|--6--6--6--6--6--6--6--6-|--6--6--6--6--6--6--6--6-|
|
|  E  E  E  E  E  E  E  E    E  E  E  E  E  E  E  E
|-------------------------|-------------------------|
|-------------------------|-------------------------|
|-------------14----------|-------------14----------|
|-10-12-13-12----13-12-10-|-12-13-12-10----12-10-13-|
|-------------------------|-------------------------|
|-------------------------|-------------------------|


  PM----|   PM--|         PM|
  E E E E E E E E   S S E E E S S E E E
|-----------------|----------------------||
|-----------------|---------------------o||
|-----------------|----------------------||
|-----------------|----------------------||
|---------6-5-3-5-|-5s6s5-3-5-5s6s5-3-5-o||
|-3-6-5-3---5-3-5-|-5s6s5-3-5-5s6s5-3-5--||
|
| PM----|   PM--|         PM|
| E E E E E E E E   S S E E E S S E E E
|-----------------|----------------------||
|-----------------|---------------------o||
|-----------------|----------------------||
|-----------------|----------------------||
|---------6-5-3-5-|-5s6s5-3-5-5s6s5-3-5-o||
|-3-6-5-3---5-3-5-|-5s6s5-3-5-5s6s5-3-5--||


  Gtrs I, II
  PM--------|   PM--|     PM  PM  PM  PM
  S S S S E E E S S E E   E E E E E E E E
|-----------------------|-----------------|
|-----------------------|-----------------|
|-----------------------|-----------------|
|-----------------------|-----------------|
|-0-0-0-0-0-3-0-0-0-0-0-|-0-3-0-4-0-3-0-1-|
|-0-0-0-0-0-5-0-0-0-0-0-|-0-3-0-4-0-3-0-1-|


  PM--------|   PM--|     PM--------------------|
  S S S S E E E S S E E   S S E S S E S S E S S E
|-----------------------|---------------------------|
|-----------------------|---------------------------|
|-----------------------|---------------------------|
|-----------------------|---------------------------|
|-0-0-0-0-0-3-0-0-0-0-0-|-0-0-0-0-0-0-0-0-0-0-0-0---|
|-0-0-0-0-0-5-0-0-0-0-0-|-0-0-0-0-0-0-0-0-0-0-0-0---|


  PM--------|   PM--|     PM  PM  PM  PM
  S S S S E E E S S E E   E E E E E E E E
|-----------------------|-----------------|
|-----------------------|-----------------|
|-----------------------|-----------------|
|-----------------------|-----------------|
|-0-0-0-0-0-3-0-0-0-0-0-|-0-3-0-4-0-3-0-1-|
|-0-0-0-0-0-5-0-0-0-0-0-|-0-3-0-4-0-3-0-1-|


  PM--------|   PM--|     PM--------|
  S S S S E E E S S E E   S S E S S E E Q.
|-----------------------|---------------------*|
|-----------------------|---------------------*|
|-----------------------|---------------------*|
|-----------------------|---------------------*|
|-0-0-0-0-0-3-0-0-0-0-0-|-0-0-0-0-0-0-0-------*|
|-0-0-0-0-0-5-0-0-0-0-0-|-0-0-0-0-0-0-0-------*|


Duration Legend
---------------
W - whole; H - half; Q - quarter; E - 8th; S - 16th; T - 32nd; X - 64th; a - acciaccatura
+ - note tied to previous; . - note dotted; .. - note double dotted
Uncapitalized letters represent notes that are staccato (1/2 duration)
Irregular groupings are notated above the duration line
Duration letters will always appear directly above the note/fret number it represents the
duration for.  Duration letters with no fret number below them represent rests.  Multi-
bar rests are notated in the form Wxn, where n is the number of bars to rest for.  Low
melody durations appear below the staff

Tablature Legend
----------------
 h   - hammer-on
 p   - pull-off
 b   - bend
 pb  - pre-bend
 r   - bend release (if no number after the r, then release immediately)
 /\  - slide into or out of (from/to "nowhere")
 s   - legato slide
 S   - shift slide
  - natural harmonic
[n]  - artificial harmonic
n(n) - tapped harmonic
 ~   - vibrato
 tr  - trill
 T   - tap
 TP  - trem. picking
 PM  - palm muting
\n/  - tremolo bar dip; n = amount to dip
 \n  - tremolo bar down
 n/  - tremolo bar up
/n\  - tremolo bar inverted dip
 =   - hold bend; also acts as connecting device for hammers/pulls
   - volume swell (louder/softer)
 x   - on rhythm slash represents muted slash
 o   - on rhythm slash represents single note slash

Misc Legend
-----------
 |  - bar
||  - double bar
||o - repeat start
o|| - repeat end
*|  - double bar (ending)
 :  - bar (freetime)
 $  - Segno
 &  - Coda
Tempo markers -  = BPM(8/16=s8/s16), where s8 = swing 8ths, s16 = swing 16ths

 
 
Lamb Of God - Broken Hands Tab :: indexed at Ultimate Guitar.
Broken Hands tabs @ 911Tabs

Quick tip, so you can enjoy Broken Hands Tab even more:

If you don't really know how to deal with "Absus4" chord and his equally confusing brothers, just put the mouse cursor over them and you will be shown a helpful chord diagram.

Show us your talent, perform Broken Hands Tab!

Here you can post a video or audio performance. Tell me more ...
Where can we find your performance? Tell me more ...
Your comment:
Please, log in to post your performance.