Artists by letter: A B C D E F G H I J K L M N O P Q R S T U V W X Y Z 0-9

 

Notion Chords
standard tuning.

you will only be using 4 chords..

E-A-C#m-B
ENJOY.




-beginning

e--0-0-0-0-0-0-0-0-0-0-0--0-0-0-0-0-0-0--0--0-0-0-0-0-0--0--0-0-0|
B--5-5-5-5-5-4-2-2-2-2-2-10-9-9-9-9-9-9-12-12-7-7-7-7-7-10-10-9-9|
G----------------------------------------------------------------|
D----------------------------------------------------------------|
A----------------------------------------------------------------|
E----------------------------------------------------------------|

----------------------------------------------------------------------------
E                                 A
I got a notion that says it doesn't feel right
C#m                    B
Got the answer in your story today
E                A                C#m      B
You gave me a sign that didn't feel right

E                             A                  C#m      B
So don't knock it, don't knock it, you been here before
E                            A                   C#m      B
So don't knock it, don't knock it, you been here before



E                           A
I just wanted to know if i could go home
C#m                 B
Been rambling day after day
E            A          C#m        B
Everyone says they don't know


E                             A                  C#m      B
So don't knock it, don't knock it, you been here before
E                            A                   C#m      B
So don't knock it, don't knock it, you been here before


*SOLO*


E                     A
I got a notion that says it doesn't feel right

C#m               B
I just wanted to know if i could go home


E                             A                  C#m      B
So don't knock it, don't knock it, you been here before
E                            A                   C#m      B
So don't knock it, don't knock it, you been here before


---------------------------------------------------------------------------
If you want to try the SOLO. here it is. very simple.

*v=push up


e-----------------4---------------|
B--5--4-2---5v--4----5-4-2--5-4-0-|
G---------------------------------|
D---------------------------------|
A---------------------------------|
E---------------------------------|



 
 
Kings Of Leon - Notion Chords :: indexed at Ultimate Guitar.
Notion tabs @ 911Tabs

Quick tip, so you can enjoy Notion Chords even more:

You might want to transpose the song if it is too high or too low for you to sing. Just click the desired option while playing a song and all the chords will automatically be transponded into a new key.

Show us your talent, perform Notion Chords!

Here you can post a video or audio performance. Tell me more ...
Where can we find your performance? Tell me more ...
Your comment:
Please, log in to post your performance.