Artists by letter: A B C D E F G H I J K L M N O P Q R S T U V W X Y Z 0-9

 

Arizona Tab
Kings of Leon-Arizona  ~= vibrato, b= bend, /= slide

Rythm intro: play this in the whole song. 

e----------------------------------------------------------|
b----------------------------------------------------------|
g----------------------------------------------------------|
d-6--6-6/7--7-7/9---9--9--9-/11--11-11/9--9---4-4-4-4/6--6-| 
a-7--7-7/9--9-9/11--11-11-11/12--12-12/11-11--6-6-6-6/7--7-|
E-0--0-0/0--0-0/0---0--0--0-/0---0--0-/0--0---0-0-0-0/0--0-|

Lead guitar 

e---------------------------------------------------------|
b-2~--5--2--5--5/9~-10--9--10--9--10--10/12~--5b--7b------|
g---------------------------------------------------------|
d---------------------------------------------------------|
a---------------------------------------------------------|
E---------------------------------------------------------|

Lead guitar second time

e-----------------------------------------------------------|
b-2~--5--2--5--5/9~-10--9--10--9--10--10/12~--17b--19b------|
g-----------------------------------------------------------|
d-----------------------------------------------------------|
a-----------------------------------------------------------|
E-----------------------------------------------------------|


e---------------------------------------------------------|
b-2~--5--2--5--5/9~-10--9--10--9--10--10/12~--5b--7b------|
g---------------------------------------------------------|
d---------------------------------------------------------|
a---------------------------------------------------------|
E---------------------------------------------------------|

e-----------------------------------------------------------|
b-2~--5--2--5--5/9~-10--9--10--9--10--10/12~--17b--19b------|
g-----------------------------------------------------------|
d-----------------------------------------------------------|
a-----------------------------------------------------------|
E-----------------------------------------------------------|


lead guitar- the three first notes (3-0-0) you hardly recognize, but tabbed them anyway.   
e--------------------------------------------------------------|
b---0-0--4-3--2~--5--2--5--5/9~-10--9--10--9--10-/12~--5b--7b--|
g--------3-2---------------------------------------------------|
d--------------------------------------------------------------|
a--------------------------------------------------------------|
E-3------------------------------------------------------------|

lead guitar first time
e----------------------------------------------------------|
b-2~--5--2--5--5/9~-10--9--10--9--10--10/12~--17b--19b-----|
g----------------------------------------------------------|
d----------------------------------------------------------|
a----------------------------------------------------------|
E----------------------------------------------------------|

palm mute all these notes, except the last six (15-15-15-18-18-18).
e------------------------------------------------------------------------|
b-2-2-2-2-2-2-5-5-5-5-5-5-9-9-9-9-9-9-12-12-12-12-12-12-17-17-17-19-19-19|
g------------------------------------------------------------------------|
d------------------------------------------------------------------------|x2
a------------------------------------------------------------------------|
E------------------------------------------------------------------------|


lead guitar second time
e-----------------------------------------------------------|
b-2~--5--2--5--5/9~-10--9--10--9--10--/12~--5b--7b----------|
g-----------------------------------------------------------|
d-----------------------------------------------------------|
a-----------------------------------------------------------|
E-----------------------------------------------------------|

e----------------------------------------------------------|
b-2~--5--2--5--5/9~-10--9--10--9--10--10/12~--17b--19b-----|
g----------------------------------------------------------|
d----------------------------------------------------------|
a----------------------------------------------------------|
E----------------------------------------------------------|

the solo part is here, but i was unsure about if it was correct, so i didn't tab it. 


this is played lower, but it goes higher and higher
e----------------------------------------------------------|
b-2~--5--2--5--5/9~-10--9--10--9--10--10/12~--17b--19b-----|
g----------------------------------------------------------|
d----------------------------------------------------------|
a----------------------------------------------------------|
E----------------------------------------------------------|

Caled plays this little part forefore the end of the song.

e------------------------------------------------------------|
b------------------------------------------------------------|
g------------------------------------------------------------|
d---6---6/7--7-------9----9/11--11-------9--------4/6--6-----|
a-7---7--------9/11----11----------12/11----6-6-6------------|
E------------------------------------------------------------|


e-----------------------------------------------------------|
b-2~--5--2--5--5/9~-10--9--10--9--10--/12~--5b--7b----------|
g-----------------------------------------------------------|
d-----------------------------------------------------------|
a-----------------------------------------------------------|
E-----------------------------------------------------------|


e----------------------------------------------------------|
b-2~--5--2--5--5/9~-10--9--10--9--10--10/12~--17b--19b-----|
g----------------------------------------------------------|
d----------------------------------------------------------|
a----------------------------------------------------------|
E----------------------------------------------------------|


 
 
Kings Of Leon - Arizona Tab :: indexed at Ultimate Guitar.
Arizona tabs @ 911Tabs
People who played Kings Of Leon - Arizona Tab also played these songs by Kings Of Leon:
Sex On Fire Chords, Revelry Tab, Use Somebody Chords, Use Somebody Acoustic Chords, Notion Chords, I Want You Tab, Closer Tab

Quick tip, so you can enjoy Arizona Tab even more:

YourChords.com Guitar Chords and Tabs Archive is currently indexing over 240'000 songs from 21'000+ different artists. And new chords just keep on coming in, so you will surely never run out of them.

Show us your talent, perform Arizona Tab!

Here you can post a video or audio performance. Tell me more ...
Where can we find your performance? Tell me more ...
Your comment:
Please, log in to post your performance.