Artists by letter: A B C D E F G H I J K L M N O P Q R S T U V W X Y Z 0-9

 
What Did I Do To Your Heart Tab
            Jonas Brothers - What Did I Do To Your Heart

Very fun song to play :D
'Chuck' between the chords for a better effect and to keep in time.
Leave a comment if you have any corrections!

Intro:
e|--------------------------------------|
B|--------------------------------------|
G|-99-9-99-9-99-9-99-9------------------|
D|-99-9-99-9-99-9-99-9-77-7-77-7-77-7-7-|
A|-77-7-77-7-77-7-77-7-77-7-77-7-77-7-7-| 
E|---------------------55-5-55-5-55-5-5-|

Verse:
e|-------------------------------|    |--------|
B|-------------------------------|    |--------|
G|-99-9-99-9-99-9-99-9-----------|    |--------|
D|-99-9-99-9-99-9-99-9-77-7-77-7-| x2 |-77-7-7-|
A|-77-7-77-7-77-7-77-7-77-7-77-7-|    |-77-7-7-|
E|---------------------55-5-55-5-|    |-55-5-5-|

Chorus:
e|-0~-0~-0~-0~-|
B|-0~-0~-0~-0~-|
G|-1~-1~-2~-2~-|
D|-2~-2~-2~-2~-| x2
A|-2~-2~-0~-0~-|
E|-0~-0~-0~-0~-|

Post-chorus:
e|--------------------------------------|
B|--------------------------------------|
G|-99-9-99-9-99-9-99-9------------------|
D|-99-9-99-9-99-9-99-9-77-7-77-7-77-7-7-|
A|-77-7-77-7-77-7-77-7-77-7-77-7-77-7-7-| 
E|---------------------55-5-55-5-55-5-5-|

Verse:
e|-------------------------------|    |--------|
B|-------------------------------|    |--------|
G|-99-9-99-9-99-9-99-9-----------|    |--------|
D|-99-9-99-9-99-9-99-9-77-7-77-7-| x2 |-77-7-7-|
A|-77-7-77-7-77-7-77-7-77-7-77-7-|    |-77-7-7-|
E|---------------------55-5-55-5-|    |-55-5-5-|

Chorus:
e|-0~-0~-0~-0~-|
B|-0~-0~-0~-0~-|
G|-1~-1~-2~-2~-|
D|-2~-2~-2~-2~-| x2
A|-2~-2~-0~-0~-|
E|-0~-0~-0~-0~-|

Bridge:
e|---------------------------------------------------|
B|---------------------------------------------------|
G|-999999999999999999999999--------------------------|
D|-999999999999999999999999-777777777777777777777777-|
A|-777777777777777777777777-777777777777777777777777-| 
E|--------------------------555555555555555555555555-|

Chorus:
e|---------------------------------------------------|
B|---------------------------------------------------|
G|-999999999999999999999999--------------------------|
D|-999999999999999999999999-777777777777777777777777-| x2
A|-777777777777777777777777-777777777777777777777777-|
E|--------------------------555555555555555555555555-|

Outro:
e|--------------------------------------------|
B|--------------------------------------------|
G|-999999999999999999999999--------------9-9~-|
D|-999999999999999999999999-777777777777-9-9~-| 
A|-777777777777777777777777-777777777777-7-7~-|
E|--------------------------555555555555------|

 
 
Jonas Brothers - What Did I Do To Your Heart Tab :: indexed at Ultimate Guitar.
What Did I Do To Your Heart tabs @ 911Tabs

About the artist behind What Did I Do To Your Heart Tab:

The Jonas Brothers are an American pop-rock band from Wyckoff, New Jersey made up of three brothers: Kevin, Joe, and Nick Jonas. They have released two albums - It's About Time in 2006, and Jonas Brothers in 2007, and will release A Little Bit Longer in 2008.

Indexed at Wikipedia.

Show us your talent, perform What Did I Do To Your Heart Tab!

Here you can post a video or audio performance. Tell me more ...
Where can we find your performance? Tell me more ...
Your comment:
Please, log in to post your performance.