Artists by letter: A B C D E F G H I J K L M N O P Q R S T U V W X Y Z 0-9

 
Paranoid Tab
I am pretty sure that this is 100% correct. Good Luck!
 
Intro/Verse
e|------------------------------------------------------------------------|
B|------------------------------------------------------------------------|
G|------------------------------------------------------------------------|
D|------------------------------------------------------------------------|X5
A|--8-8-8--6-6-6-6---------------------8-8-8--6-6-6-6---------------------|
E|------------------6-6-6-6-6-6-6-6-6------------------6-6-6-6-6-6-6-6-6-6|

 Pre-Chorus
e|------------------------------------------------------------------|
B|------------------------------------------------------------------|
G|-----------8------------------------------------------------------|
D|--5--8--5--8------------------------------------------------------|
A|--5--8--5--6------------------------------------------------------|
E|--3--6--3---------------------------------------------------------|
 
 Chorus
e|------------------------------------------|
B|------------------------------------------|
G|--10-10-10--8-8-8-8-----------------------|
D|--10-10-10--8-8-8-8--8-8-8-8-8-8-8-8-8----|X4
A|--8--8--8---6-6-6-6--8-8-8-8-8-8-8-8-8----|
E|---------------------6-6-6-6-6-6-6-6-6----|

 Verse
e|----------------------------------------------------------------------|
B|----------------------------------------------------------------------|
G|----------------------------------------------------------------------|
D|----------------------------------------------------------------------|X5
A|--8-8-8--6-6-6-6---------------------8-8-8--6-6-6-6-------------------|
E|------------------6-6-6-6-6-6-6-6-6------------------6-6-6-6-6-6-6-6-6|

 Pre-Chorus
e|--------------------------------------------------------------------|
B|--------------------------------------------------------------------|
G|-----------8--------------------------------------------------------|
D|--5--8--5--8--------------------------------------------------------|
A|--5--8--5--6--------------------------------------------------------|
E|--3--6--3-----------------------------------------------------------|

 Chorus
e|------------------------------------------|
B|------------------------------------------|
G|--10-10-10--8-8-8-8-----------------------|
D|--10-10-10--8-8-8-8--8-8-8-8-8-8-8-8-8----|X8
A|--8--8--8---6-6-6-6--8-8-8-8-8-8-8-8-8----|
E|---------------------6-6-6-6-6-6-6-6-6----|

 Bridge
e|-------------------------------------------------|
B|-------------------------------------------------|
G|-------------------------------------------------|
D|--6--8---------------------------------6---------|
A|--6--8---------8-8---------8-8-------8---8-6-8-6-|
E|--4--6--8(h)10-----8(h)10-----8(h)10-------------|

e|-------------------------------------------------|
B|-------------------------------------------------|
G|-------------------------------------------------|
D|--6--8---------------------------------6---------|
A|--6--8---------8-8---------8-8-------8---8-6-8-6-|
E|--4--6--8(h)10-----8(h)10-----8(h)10-------------|

e|------------------------------------------------------|
B|------------------------------------------------------|
G|------------------------------------------------------|
D|--6--8--5--4--4--------------------------6------------|
A|--6--8--5--4--4--8-8--------8-8--------8---8-6-8-6----|
E|--4--6--3--2--2------8(h)10-----8(h)10-------------8-6|

 Chorus
e|------------------------------------------|
B|------------------------------------------|
G|--10-10-10--8-8-8-8-----------------------|
D|--10-10-10--8-8-8-8--8-8-8-8-8-8-8-8-8----|X8
A|--8--8--8---6-6-6-6--8-8-8-8-8-8-8-8-8----|
E|---------------------6-6-6-6-6-6-6-6-6----|

 
 
Jonas Brothers - Paranoid Tab :: indexed at Ultimate Guitar.
Paranoid tabs @ 911Tabs

About the artist behind Paranoid Tab:

The Jonas Brothers are an American pop-rock band from Wyckoff, New Jersey made up of three brothers: Kevin, Joe, and Nick Jonas. They have released two albums - It's About Time in 2006, and Jonas Brothers in 2007, and will release A Little Bit Longer in 2008.

Indexed at Wikipedia.

Show us your talent, perform Paranoid Tab!

Here you can post a video or audio performance. Tell me more ...
Where can we find your performance? Tell me more ...
Your comment:
Please, log in to post your performance.