Artists by letter: A B C D E F G H I J K L M N O P Q R S T U V W X Y Z 0-9

 
The Living Tab
Guitar: Sibbi (Sebastian Hafner)
From Album "Dead Serious"
Tuning: Half Step Down (Eb, Ab, Db, Gb, Hb, eb)


Intro
Lead Guitar (Distortion)
eb-----------------------------------------------------------------|
Hb-----------------------------------------------------------------|       
Gb----9-7---7--------------9-7---7--------------9-7---7------------|	 
Db--------9---9-7-9-7----------9---9-7—9-7----------9---9-7-9-7----|
Ab--7-----------------10-------------------10-------------------10-|           
Eb-----------------------------------------------------------------|           

eb------------------------|
Hb------------------------|
Gb---9-7----------9-9-999-|
Db-------9--------9-9-999-|
Ab---------7------7-7-777-|
Eb------------------------|

Rhythm Guitar (Clean)
eb---------------------------------|
Hb---------------------------------|
Gb----------------5-5-5-5h7-7-7----|
Db--2------5------5-5-5-5h7-7-7-2--|
Ab--2—30x--5—15x--3-3-3-3h5-5-5—2--|
Eb--0------3--------------------0--|



Verse
„Oooh A headache minus pills..."
Lead Guitar (Distortion)
eb-----------------------------------------------------------------|
Hb-----------------------------------------------------------------|       
Gb----9-7---7--------------9-7---7--------------9-7---7------------|	 
Db--------9---9-7-9-7----------9---9-7—9-7----------9---9-7-9-7----|
Ab--7-----------------10-------------------10-------------------10-|           
Eb-----------------------------------------------------------------|           

eb----------------------------------------------------------------------|
Hb----------------------------------------------------------------------|
Gb—-5-5-5-5h7-7-7h9---9-9-999----9-7---7--------------9-7---7-----------|
Db—-5-5-5-5h7-7-7h9---9-9-999--------9---9-7-9-7----------9---9-7—9-7---|
Ab—-3-3-3-3h5-5-5h7---7-7-777--7-----------------10-------------------10|
Eb----------------------------------------------------------------------|

eb-----------------------------------------|
Hb-----------------------------------------|
Gb---9-7---7--------------5-5-5-5-7-7-7-7--|
Db-------9---9-7-9-7------5-5-5-5-7-7-7-7--|
Ab-------------------10---3-3-3-3-5-5-5-5--|
Eb-----------------------------------------|


Rhythm Guitar (Clean)
eb----------------------------------------|
Hb----------------------------------------|
Gb----------------2------5-5-5-5-7-7-7----|
Db--2------5------2-15x—-5-5-5—5-7-7-7-2--|
Ab--2—15x--5—15x--0-—----3-3-3—3-5-5-5-2--|
Eb--0------3---------------------------0--|

eb----------------------------------------|
Hb----------------------------------------|
Gb----------------2------5-5-5-5-7-7-7-7--|
Db--2------5------2-15x—-5-5-5—5-7-7-7-7--|
Ab--2—15x--5—15x--0-—----3-3-3—3-5-5-5-5--|
Eb--0------3------------------------------|

Pre-Chorus
Clean
„To be honest I'm amazed..."
eb--0----2----3----0--|
Hb—-1----3----0----1--|
Gb—-2----2----0----0--|    2x
Db—-2----0----0----2--|
Ab—-0---------2----3--|
Eb------------3-------|

			Distortion
eb--0----2----3-----------------------------------|
Hb—-1----3----0-----------------------------------|
Gb—-2----2----0----5-x-x-x-x-x-x-x-x-x-x-x-5-5-5--|    
Db—-2----0----0----5-x-x-x-x-x-x-x-x-x-x-x-5-5-5--|
Ab—-0---------2----3-x-x-x-x-x-x-x-x-x-x-x-3-3-3--|
Eb------------3-----------------------------------|

Chorus
Lead Guitar
„Situations have been here forever..."
eb-----------------------------------------------------------------|
Hb-----------------------------------------------------------------|       
Gb----9-7---7--------------9-7---7--------------9-7---7------------|	 
Db--------9---9-7-9-7----------9---9-7—9-7----------9---9-7-9-7----|
Ab--7-----------------10-------------------10-------------------10-|           
Eb-----------------------------------------------------------------|           

eb-------------------|
Hb-------------------|
Gb---9-7---7---77777-|	  2x
Db-------9---9-------|
Ab-------------------|
Eb-------------------|


Rhythm Guitar
eb---------------------------------------------------------------------|
Hb---------------------------------------------------------------------|
Gb---------------------------------------------------------------------|
Db---2-2-2-22--2-2-222-5-5-5-55—-5-5-555-7-7-7-77—-7-7-777-10-10-10-10-|
Ab---2-2-2-22—-2-2-222-5-5-5-55—-5-5-555-7-7-7-77—-7-7-777-10-10-10-10-|
Eb---0-0-0-00—-0-0-000-3-3-3-33—-3-3-333-5-5-5-55—-5-5-555--8--8--8—-8-|

eb------------------------------------------------|
Hb------------------------------------------------|
Gb-----------------------------------5------7-----|
Db---12-------2------5-------7---—---5-7x---7-7x--|
Ab---12-7x----2—15x--5—15x---7-15x—--3------5-----|
Eb---10-------0------3-------5--------------------|


After Chorus
Lead Guitar (Distortion)
eb-----------------------------------------------------------------|
Hb-----------------------------------------------------------------|       
Gb----9-7---7--------------9-7---7--------------9-7---7------------|	 
Db--------9---9-7-9-7----------9---9-7—9-7----------9---9-7-9-7----|
Ab--7-----------------10-------------------10-------------------10-|           
Eb-----------------------------------------------------------------|           

eb-------------|
Hb-------------|
Gb---9-7-------|
Db-------9-----|
Ab---------7---|
Eb-------------|

2nd Guitar (Distortion)
eb-----------------------|        	
Hb--------8888-777-------|		
Gb----------------77777--|   3x	        
Db-----------------------|		
Ab---7777----------------|		
Eb-----------------------|		

eb---------------|
Hb---------------|
Gb-------777-----|
Db---------------|
Ab—-7777------7--|
Eb---------------|

Rhythm Guitar (Clean)
Hb----------------------------------------|
Gb----------------2------5-5-5-5-7-7-7----|
Db--2------5------2-15x—-5-5-5—5-7-7-7-2--|
Ab--2—15x--5—15x--0-—----3-3-3—3-5-5-5-2--|
Eb--0------3---------------------------0--|

2nd  Verse
Lead Guitar (Distortion)
„A message - A BEEP I wonder what's going on..."
eb--------------------------------------------------------------------------|
Hb--------------------------------------------------------------------------|
Gb--------------------------------------------------------------------------|
Db--------------------------------------------------------------------------|
Ab-77777777777777-1010101010101010101010101010-1212121212121212121212121212-|
Eb--------------------------------------------------------------------------|

eb--------------------------------------------------------|
Hb--------------------------------------------------------|
Gb------------------------9-9-999----9-7---7--------------|
Db------------------------9-9-999--------9---9-7-9-7------|
Ab--15151515-171717-19----7-7-777--------------------10---|
Eb--------------------------------------------------------|

eb------------------------------------------------------|
Hb------------------------------------------------------|       
Gb----9-7---7--------------9-7---7--------------9-7-----|	 
Db--------9---9-7-9-7----------9---9-7—9-7----------9---|
Ab--------------------10-------------------10-----------|           
Eb------------------------------------------------------|           

Rhythm Guitar (Clean)
„A question - A prize lots of money in sight..."
eb----------------------------------------|
Hb----------------------------------------|
Gb----------------2------5-5-5-5-7-7-7-7--|
Db--2------5------2-15x—-5-5-5—5-7-7-7-7--|
Ab--2—15x--5—15x--0-—----3-3-3—3-5-5-5-5--|
Eb--0------3------------------------------|

Pre-Chorus

2x Chorus

End
eb-----------------|
Hb-----------------|
Gb---9-7-----------|
Db-------7-------2-|
Ab---------7-----2-|
Eb---------------0-|

Please rate the tab...
Zach 182






 
 
Itchy Poopzkid - The Living Tab :: indexed at Ultimate Guitar.
The Living tabs @ 911Tabs
People who played Itchy Poopzkid - The Living Tab also played these songs by Itchy Poopzkid:
Leftrightwrong Tab, You Dont Bring Me Down Chords, Back To 82 Chords, One Day Chords, The Lottery Chords, Why Still Bother Chords

Quick tip, so you can enjoy The Living Tab even more:

You might want to transpose the song if it is too high or too low for you to sing. Just click the desired option while playing a song and all the chords will automatically be transponded into a new key.

Show us your talent, perform The Living Tab!

Here you can post a video or audio performance. Tell me more ...
Where can we find your performance? Tell me more ...
Your comment:
Please, log in to post your performance.