Artists by letter: A B C D E F G H I J K L M N O P Q R S T U V W X Y Z 0-9

 
Me Amaras Al Amanecer Tab
Iniste
Esperando a Que Amanezca
Me Amaras Al Amanecer

Esta mas o menos la cancion^^


Intro
e-----------------------------------------]
B-----------------------------------------]
G-----------------------------------------]repite 2 vecesz  
D-8888888-x-8888888-0-3333333-0-2222222-0-]
A-8888888-x-8888888-0-3333333-0-2222222-0-]
E-8888888-x-8888888-0-3333333-0-2222222-0-]

e-0-----]
B-0-----]
G-0-----] Termina el intro en esto (se Repite en Toda La Cancion)
D-8-----]
A-8-----]
E-8-----]

e---------]
B---------]epiite 16 veces junto con el intro
G---2---2-]
D--3--3---]
A-3--3-3--]
E---------]

Temia que esto.....

e-----------------]
B-----------------]
G-----------------]
D-8-7-3-7-5-8-3-7-] Rasgueos!!!!
A-8-7-3-7-5-8-3-7-]
E-8-7-3-7-5-8-3-7-]

Aqui Estoii soii io.....

e-----------------------------------------]
B-----------------------------------------]
G-----------------------------------------]Se repite dos veces
D-8888888-x-8888888-0-3333333-0-2222222-0-]
A-8888888-x-8888888-0-3333333-0-2222222-0-]
E-8888888-x-8888888-0-3333333-0-2222222-0-]


Perdiste suenos.....

e-----------------------]         
B-----------------------]
G-----------------------]
D-10-10-10-10-10-8h9p8--]4 veces 
A-----------------------]
E---------------------8-]

e--------------------------------------------------------------------]
B--------------------------------------------------------------------]
G--------------------------------------------------------------------]
D---7--5--7--8-8-7-5----5--7--8--8-7h8-----8--7--5--8--7--5--7h88888-]
A-88-88-88-88---------88-88-88-------8---88-88-88-88-88-88-88--------]
E--------------------------------------8--------------------8-------8]

Aqui Estoi.....

e-----------------------------------------]
B-----------------------------------------]
G-----------------------------------------]repite 4 vecesz  
D-8888888-x-8888888-0-3333333-0-2222222-0-]
A-8888888-x-8888888-0-3333333-0-2222222-0-]
E-8888888-x-8888888-0-3333333-0-2222222-0-]


En mii....

e---------------------------------------------------------------
B---------------------------------------------------------------
G---------------------------------------------------------------
D-55555555-88888888-77777777-55555555-88888888-7777777-55555555-
A-55555555-88888888-77777777-55555555-88888888-7777777-55555555-
E-55555555-88888888-77777777-55555555-88888888-7777777-55555555-

e---------------------------]
B---------------------------]
G---------------------------]
D-33333333-55555555-77777777]
A-33333333-55555555-77777777]
E-33333333-55555555-77777777]

Aqui estoi........

e-----------------------------------------]
B-----------------------------------------]
G-----------------------------------------]repite 4 vecesz  
D-8888888-x-8888888-0-3333333-0-2222222-0-]
A-8888888-x-8888888-0-3333333-0-2222222-0-]
E-8888888-x-8888888-0-3333333-0-2222222-0-]

Final

e------]
B------]
G---2--]
D--3---]Se Repite Esto Hasta Que se Acaba.......
A-3----]
E------]


[email protected]
Alguna correcci0n O aclaracion 
aqui muchas grax se la dedico a 
Janeth!!

 
 
Insite - Me Amaras Al Amanecer Tab :: indexed at Ultimate Guitar.
Me Amaras Al Amanecer tabs @ 911Tabs

Quick tip, so you can enjoy Me Amaras Al Amanecer Tab even more:

Try out the AutoScroller option ... It scrolls the page for you, so you can totally focus on nailing that solo. You can choose among different speeds using your mouse or your keyboard (keys 0, 1, 2 and 3).

Show us your talent, perform Me Amaras Al Amanecer Tab!

Here you can post a video or audio performance. Tell me more ...
Where can we find your performance? Tell me more ...
Your comment:
Please, log in to post your performance.