Artists by letter: A B C D E F G H I J K L M N O P Q R S T U V W X Y Z 0-9

 
Destrozame Tab
(alan)


AFINACION: DROP C

D---------------------------------|
A8/7-8/7-8/7-8/7-8/7-8/7-8/7-8/7-| x3
F---------------------------------|
C---------------------------------|
G---------------------------------|
C---------------------------------|
En esta parte del intro tienes k
usar tus dos dedos y solo levantar el
k pisa el traste numero 8 creo k se llama
finger pick o algo asi xD

D---------------------------------------|
A-10-10-1010-10-10-10-8-8-8-8-7-7-7-7--|
F---------------------------------------| x5
C---------------------------------------|
G---------------------------------------|
C---------------------------------------|

D------------------------------------------|
A-----------------------------------------|
F------------------------------------------|
C----9-9----9-9----9-9----9-9----9-9----9--|
Gxx7-7-xx7-7-xx7-7-xx7-7-xx7-7-xx7--|
C-xx-----xx-----xx-----xx-----xx-----xx----|

Tan solo ven escuchame tu sabes...
Olvidame otra vez hazme...


D---------------------------------|
A8/7-8/7-8/7-8/7-8/7-8/7-8/7-8/7-|
F---------------------------------|
C---------------------------------|
G---------------------------------|
C---------------------------------|

D----------------------------------------------------------------------|
A--------------------------------10-10-1010-10-10-10-8-8-8-8-7-7-7-7-|
F----------------------------------------------------------------------|
C---9-9-9-9-9-9--11-11-11-11-11-11-------------------------------------|
G---7-7-7-7-7-7---9--9--9--9--9--9-------------------------------------|
C----------------------------------------------------------------------|
Destr0zame y arrancame de todo lo k soy

D----------------------------------------------------------------------|
A--------------------------------10-10-1010-10-10-10-8-8-8-8-7-7-7-7-|
F----------------------------------------------------------------------|
C---9-9-9-9-9-9--11-11-11-11-11-11-------------------------------------|
G---7-7-7-7-7-7---9--9--9--9--9--9-------------------------------------|
C----------------------------------------------------------------------|

Hazme entender quiero verte desde este momento



Despus siguen estos acordes acompanados del violin

Re5  mi5  do5

C-9---11----7-|
G-7----9----5-|

D----------------------------------|
A---------------------------------|
F----------------------------------|
C9-9-9-9-9-9-9-9-9-9-9-9-9-9-9-9--| en esta parte va pausado
G-7-7-7-7-7-7-7-7-7-7-7-7-7-7-7-7--|
C----------------------------------|

Iwal k aier y saber k siento por k sangro

D----------------------------------|
A---------------------------------|
F----------------------------------|
C-11-11-11-11-11-11-11-11-11-11-11-| iwal va pausado
G--9--9--9--9--9--9--9--9--9--9--9-|
C----------------------------------|

Y saber k miento si t extrano olvidame otra vez

D-----------------------------------|
A----------------------------------|
C-x-x-x-x-x-x-x-x-x-x-x-x-x-x-x-x-9-|
G-x-x-x-x-x-x-x-x-x-x-x-x-x-x-x-x-7-|
C-x-x-x-x-x-x-x-x-x-x-x-x-x-x-x-x---|

D----------------------------------------------------------------------|
A--------------------------------10-10-1010-10-10-10-8-8-8-8-7-7-7-7-|
F----------------------------------------------------------------------|
C---9-9-9-9-9-9--11-11-11-11-11-11-------------------------------------|
G---7-7-7-7-7-7---9--9--9--9--9--9-------------------------------------|
C----------------------------------------------------------------------|
Destr0zame y arrancame de todo lo k soy

D----------------------------------------------------------------------|
A--------------------------------10-10-1010-10-10-10-8-8-8-8-7-7-7-7-|
F----------------------------------------------------------------------|
C---9-9-9-9-9-9--11-11-11-11-11-11-------------------------------------|
G---7-7-7-7-7-7---9--9--9--9--9--9-------------------------------------|
C----------------------------------------------------------------------|

Hazme entender quiero verte desde este momento


No tardas en volver tu sola
Y piensas k estoi bn  -------- en sta part no escucho mui bn las
                                guitarras


D---------------------------------|
A--------------------------------|
F---------------------------------|
C---9---xxx--9-9------------------|
G---7---xxx--7-7------------------|
C-------xxx-----------------------|
Destrozame aun respiro lento... ...
D----------------------------------------------------------------------|
A--------------------------------10-10-1010-10-10-10-8-8-8-8-7-7-7-7-|
F----------------------------------------------------------------------|
C---9-9-9-9-9-9--11-11-11-11-11-11-------------------------------------|
G---7-7-7-7-7-7---9--9--9--9--9--9-------------------------------------|
C----------------------------------------------------------------------|
Destr0zame y arrancame de todo lo k soy

D----------------------------------------------------------------------|
A--------------------------------10-10-1010-10-10-10-8-8-8-8-7-7-7-7-|
F----------------------------------------------------------------------|
C---9-9-9-9-9-9--11-11-11-11-11-11-------------------------------------|
G---7-7-7-7-7-7---9--9--9--9--9--9-------------------------------------|
C----------------------------------------------------------------------|

Hazme entender quiero verte desde este momento


D------------------------------------------|
A10-10-1010-10-10-10-8-8-8-8-7-7-7-7-----|
F------------------------------------------|
C---------------------------------------9--|
G---------------------------------------7--|
C------------------------------------------|
Destr0zame

 
 
Insite - Destrozame Tab :: indexed at Ultimate Guitar.
Destrozame tabs @ 911Tabs

Quick tip, so you can enjoy Destrozame Tab even more:

You might want to transpose the song if it is too high or too low for you to sing. Just click the desired option while playing a song and all the chords will automatically be transponded into a new key.

Show us your talent, perform Destrozame Tab!

Here you can post a video or audio performance. Tell me more ...
Where can we find your performance? Tell me more ...
Your comment:
Please, log in to post your performance.