Artists by letter: A B C D E F G H I J K L M N O P Q R S T U V W X Y Z 0-9

Wings Of A Butterfly Tab (ver 5) - Him


 
Wings Of A Butterfly Tab
This is my first tab, so be merciful!

() - rings out
x - muted
h - hammer-on
p - pull-off
/ - slide
~ - vibrato



INTRO

e|---------------------------------------------------------------------|
B|--7---7---7-5h7p5-3/5---5---5---5---5---5---5-3h5p3-2/3---3---3---2--|
G|----4---4-------------2---2---2---2---2---2--------------------------|REPEAT x4
D|--------------------------------------------------------2---2---2----|
A|---------------------------------------------------------------------|
D|--------------------------------------------------------------^------|
								Guitar #2 comes in here

GUITAR #2 (AFTER FIRST INTRO)

e|----------------------------------------------------------------------------|
B|----------------------------------------------------------------------------|
G|----------------------------------------------------------------------------|
D|---------------------------------------------------------------7--7--(9)----|
A|---------------------------------------------------------------7--7--(9)----|
D|---------------------------------------------------------------7--7--(9)----|

GUITAR #2 (AFTER SECOND INTRO)

e|---------------------------------------------------------------------|
B|---------------------------------------------------------------------|
G|---------------------------------------------------------------------|
D|---------------------------------------------------------------7--7--|
A|---------------------------------------------------------------7--7--|
D|---------------------------------------------------------------7--7--|

GUITAR #2

e|-----------------------------------------------------------------------|
B|-----------------------------------------------------------------------|
G|-----------------------------------------------------------------------|REPEAT X2
D|--9-9-9-9-9-----7--7-7-7-7-7-7-7--7-7-7-7-7-5-4-2----2/7-7---7---------|
A|--9-9-9-9-9-----7--7-7-7-7-7-7-7--7-7-7-7-7-5-4-2----2/7-7---7---------|
D|--9-9-9-9-9-4-5-7--7-7-7-7-7-7-7--7-7-7-7-7-5-4-2----2/7-7---7---------|



VERSE

e|---------------------------------------------------------------------|
B|---------------------------------------------------------------------|
G|---------------------------------------------------------------------|
D|--x7x9-x9------------------------x9x7-x7------x7x9x7x9x11x9x7--------|
A|--x7x9-x9------------------------x9x7-x7------x7x9x7x9x11x9x7--------|
D|--x7x9-x9------------------------x9x7-x7------x7x9x7x9x11x9x7--------|
    "Heaven ablaze in our..."       "We're standin' still in time..."


e|----------------------------------------------------------------------------|
B|----------------------------------------------------------------------------|
G|----------------------------------------------------------------------------|
D|--x7x9-x9------x9x7--x9x7--------x9x7-x7------x7x9x7x9x11x9x7---(2)---7--7--|
A|--x7x9-x9------x9x7--x9x7--------x9x7-x7------x7x9x7x9x11x9x7---(2)---7--7--|
D|--x7x9-x9------x9x7--x9x7--------x9x7-x7------x7x9x7x9x11x9x7---(2)---7--7--|
    "The blood on our hands..."     "We offer as sacrifice..."


CHORUS

e|-----------------------------------------------------------------------|
B|-----------------------------------------------------------------------|
G|-----------------------------------------------------------------------|REPEAT X3
D|--9-9-9-9-9-----7--7-7-7-7-7-7-7--7-7-7-7-7-5-4-2----2/7-7---7---------|
A|--9-9-9-9-9-----7--7-7-7-7-7-7-7--7-7-7-7-7-5-4-2----2/7-7---7---------|
D|--9-9-9-9-9-4-5-7--7-7-7-7-7-7-7--7-7-7-7-7-5-4-2----2/7-7---7---------|

GUITAR #2 (COMES IN ON THIRD TIME CHORUS PLAYS)

e|---------------------------------------------------------------------|
B|--7---7---7-5h7p5-3/5---5---5---5---5---5---5-3h5p3-2/3---3---3---2--|
G|----4---4-------------2---2---2---2---2---2--------------------------|
D|--------------------------------------------------------2---2---2----|
A|---------------------------------------------------------------------|
D|---------------------------------------------------------------------|



VERSE


e|---------------------------------------------------------------------|
B|---------------------------------------------------------------------|
G|---------------------------------------------------------------------|
D|--x7x9-x9--------x7----x7--------x9x7-x7------x7x9x7x9x11x9x7--------|
A|--x7x9-x9--------x7----x7--------x9x7-x7------x7x9x7x9x11x9x7--------|
D|--x7x9-x9--------x7----x7--------x9x7-x7------x7x9x7x9x11x9x7--------|


e|----------------------------------------------------------------------------|
B|----------------------------------------------------------------------------|
G|----------------------------------------------------------------------------|
D|--x7x9-x9------x9x7-x7-x7--------x9x7-x7------x7x9x7x9x11x9x7---(2)---7--7--|
A|--x7x9-x9------x9x7-x7-x7--------x9x7-x7------x7x9x7x9x11x9x7---(2)---7--7--|
D|--x7x9-x9------x9x7-x7-x7--------x9x7-x7------x7x9x7x9x11x9x7---(2)---7--7--|


CHORUS

e|-----------------------------------------------------------------------|
B|-----------------------------------------------------------------------|
G|-----------------------------------------------------------------------|REPEAT X4 THIS TIME
D|--9-9-9-9-9-----7--7-7-7-7-7-7-7--7-7-7-7-7-5-4-2----2/7-7---7---------|
A|--9-9-9-9-9-----7--7-7-7-7-7-7-7--7-7-7-7-7-5-4-2----2/7-7---7---------|
D|--9-9-9-9-9-4-5-7--7-7-7-7-7-7-7--7-7-7-7-7-5-4-2----2/7-7---7---------|

GUITAR #2 (COMES IN ON THIRD TIME CHORUS PLAYS)

e|---------------------------------------------------------------------|
B|--7---7---7-5h7p5-3/5---5---5---5---5---5---5-3h5p3-2/3---3---3---2--|
G|----4---4-------------2---2---2---2---2---2--------------------------|REPEAT X2
D|--------------------------------------------------------2---2---2----|
A|---------------------------------------------------------------------|
D|---------------------------------------------------------------------|


INTERLUDE

e|---------------------------------------------------------------------|
B|---------------------------------------------------------------------|
G|---------------------------------------------------------------------|
D|--4--/7-6-4-2------4--/7--2------------4--/7-6-4-2------4--/7--------|
A|--4--/7-6-4-2------4--/7--2------------4--/7-6-4-2------4--/7--------|
D|--4--/7-6-4-2------4--/7--2------------4--/7-6-4-2------4--/7--1~----|

GUITAR #2

e|---------------------------------------------------------------------|
B|---------------------------------------------------------------------|
G|-----------9-----------------9-----------------9---------------------|SOME KIND OF DISTORTION
D|-------------9-----------------11-9--------------9-------------------|IS USED
A|---------------9---7-9~-------------12~------------9-----------------|PLAYED DURING FIRST PART
D|---------------------------------------------------------------------|ONLY



e|------------------------------------------------------------------------------------------------|
B|------------------------------------------------------------------------------------------------|
G|---------------------------------------------------------------------/8-----7----10---11--------|
D|--4--/7-6-4-2-2-0-2---4--/7--2------------4--/7-6-4-2--2-0-2---4--/7-/8-----7----10---11---7---7|
A|--4--/7-6-4-2-2-0-2---4--/7--2------------4--/7-6-4-2--2-0-2---4--/7-/6-----5----8----9----7---7|
D|--4--/7-6-4-2-2-0-2---4--/7--2------------4--/7-6-4-2--2-0-2---4--/7-----------------------7---7|


CHORUS

e|-----------------------------------------------------------------------|
B|-----------------------------------------------------------------------|
G|-----------------------------------------------------------------------|REPEAT X5
D|--9-9-9-9-9-----7--7-7-7-7-7-7-7--7-7-7-7-7-5-4-2----2/7-7---7---------|
A|--9-9-9-9-9-----7--7-7-7-7-7-7-7--7-7-7-7-7-5-4-2----2/7-7---7---------|
D|--9-9-9-9-9-4-5-7--7-7-7-7-7-7-7--7-7-7-7-7-5-4-2----2/7-7---7---------|


e|-----------------------------------------------------------------------|
B|-----------------------------------------------------------------------|
G|-----------------------------------------------------------------------|
D|--9-9-9-9-9-----7--7-7-7-7-7-7-7--7-7-7-7-7-5-4-2----2/7-7---7\--------|
A|--9-9-9-9-9-----7--7-7-7-7-7-7-7--7-7-7-7-7-5-4-2----2/7-7---7\--------|
D|--9-9-9-9-9-4-5-7--7-7-7-7-7-7-7--7-7-7-7-7-5-4-2----2/7-7---7\--------|


GUITAR #2 (COMES IN ON THIRD TIME CHORUS PLAYS)

e|---------------------------------------------------------------------|
B|--7---7---7-5h7p5-3/5---5---5---5---5---5---5-3h5p3-2/3---3---3---2--|
G|----4---4-------------2---2---2---2---2---2--------------------------|REPEAT X4
D|--------------------------------------------------------2---2---2----|
A|---------------------------------------------------------------------|
D|---------------------------------------------------------------------|

HOPE THIS WORKS!!!!




 
 
Him - Wings Of A Butterfly Tab :: indexed at Ultimate Guitar.
Wings Of A Butterfly tabs @ 911Tabs

Quick tip, so you can enjoy Wings Of A Butterfly Tab even more:

If you don't really know how to deal with "Absus4" chord and his equally confusing brothers, just put the mouse cursor over them and you will be shown a helpful chord diagram.

Show us your talent, perform Wings Of A Butterfly Tab!

Here you can post a video or audio performance. Tell me more ...
Where can we find your performance? Tell me more ...
Your comment:
Please, log in to post your performance.