Artists by letter: A B C D E F G H I J K L M N O P Q R S T U V W X Y Z 0-9

 
To Know Your Name Tab
[Intro]
E|----7--------7--------7------------|
B|--7---10-8-----10-7-----10---------|
G|-7---------7--------7------6s7-7-9-|
D|-----------------------------------|
A|-----------------------------------|
E|-----------------------------------| x2

Play intro for verses.

[Chorus]
E|-----------------------------|
B|------10-----10-----10-----8-|
G|-7-9-----6s7----7-9----7-9---|
D|-----------------------------|
A|-----------------------------|
E|-----------------------------| repeat

[Solo]
E|-----------------------------------------------------------------|
B|------15--15--14--15-----------15--14--15---------------14--15---|
G|-11s12--14--14--14--14-11-11h14--14--14--14-----------14--14--14-|
D|-------------------------------------------12-12h14-16-----------|
A|-----------------------------------------------------------------|
E|-----------------------------------------------------------------|

E|-----14--15--17-----------------------------------------------------|
B|-17--------------15-15h17-19-17-14--15-----------15------------15---|
G|---14--14--14---------------------14--14-11-11h14--h12-14-12-14--12-|
D|--------------------------------------------------------------------|
A|--------------------------------------------------------------------|
E|--------------------------------------------------------------------|

E|------14-------------------------------|
B|----------14--15---------15------------|
G|-11-14--14--14--14-11-14----14-12---11-|
D|---------------------------------------|
A|---------------------------------------|
E|---------------------------------------|

 
 
Hillsong - To Know Your Name Tab :: indexed at Ultimate Guitar.
To Know Your Name tabs @ 911Tabs

Quick tip, so you can enjoy To Know Your Name Tab even more:

You might want to transpose the song if it is too high or too low for you to sing. Just click the desired option while playing a song and all the chords will automatically be transponded into a new key.

Show us your talent, perform To Know Your Name Tab!

Here you can post a video or audio performance. Tell me more ...
Where can we find your performance? Tell me more ...
Your comment:
Please, log in to post your performance.